PrimaNota.ru - самый крупный в мире бесплатный архив песенных текстов, аккордов, табулатур и нот


Beck - My Mind Is On You - таба, видео

Регистрация Запомнить меня
Войти через:  Facebook Google Twitter Vk Yandex Mail.ru

Beck - My Mind Is On You - таба, видео

Печатать
Просмотров: 20
Intro/verses
   D               ?
E|-------2--2-----------------------------
B|----3--3--3---------2--2--2--2--2-------
G|-2--2--2--2--2------2--2--2--2--2-------
D|-0--0--------0---4--4--4--4--4--4-------
A|-0--0--------0---4--4--4--4--4--4-------
E|-----------------2--2--2--2--2--2-------

My mind is on you 
Please don't take it off 
Just leave it there 
So don't get lost 
So don't get empty 
Sittin' by itself 
In the evening time 

Chorus
   G           A              D                 ?
E|-3--3--3--3-----------------2-----------------------------------
B|----------------------------3--3--3--3--3--3-----2--2--2--2--2--
G|-------------2--2--2--2--2--2--2--2--2--2--2-----2--2--2--2--2--
D|-------------2--2--2--2--0--0--0--0--0--0--0--4--4--4--4--4--4--
A|-2--2--2--2--0--0--0--0--0--0--0--0--0--0--0--4--4--4--4--4--4--
E|-3--3--3--3-----------------------------------2--2--2--2--2--2--

My mind is on you 
Let it stay 
My ?? won't hate you 
Let it stay 
Let it stay 
Добавлено: 03.04.2016
Другие материалы по этой песне:
  • Аккорды и текст

Страница создана 03.04.2016
http://primanota.ru/beck/my-mind-is-on-you-chords.htm
Привет, Гость.
Предлагаем пройти революционный курс по гитаре.
Подарок от PrimaNota.Ru, забирай!