PrimaNota.ru - самый крупный в мире бесплатный архив песенных текстов, аккордов, табулатур и нот


Beck - Lonesome - таба, видео

Регистрация Запомнить меня
Войти через:  Facebook Google Twitter Vk Yandex Mail.ru

Beck - Lonesome - таба, видео

Печатать
Просмотров: 98
Beck
"Lonesome" 
from the album: One Foot in the Grave
transcribed by Mark McKee  mhk_77@yahoo.com>


Intro:
   .           .
D -0-0-0-0-0-0-0-0-0-0-0-0--------------------
A --------------------------------------------
E --------------------------------------------

Verse:

D -0-0-0--------0-0-0-----------------------------
A ---------------------0-0-0------------0-0-0-----
E -------3-3-3------------------0-0-0----------3333

Chorus:

D -----------------------------------------
A -------0-0-0-----------------------------
E -0-0-0-------3-3-3-3-3-3-----------------

Bridge:

e -------2---------------3-------------|---2--
B -----3---3-----------3---3-----------|---3--
G ---2-------2---------------0-------.-|---2--
D -0-----------------0-----------------|---0--
A -----------------------------------.-|--(0)-
E ----------------3--------------------|------
     
Добавлено: 22.08.2013
Другие материалы по этой песне:
  • Аккорды и текст

Страница создана 22.08.2013
http://primanota.ru/beck/lonesome-chords.htm
Привет, Гость.
Предлагаем пройти революционный курс по гитаре.
Подарок от PrimaNota.Ru, забирай!