PrimaNota.ru - самый крупный в мире бесплатный архив песенных текстов, аккордов, табулатур и нот


Beck - Alcohol - текст песни, таба, видео

Регистрация Запомнить меня
Войти через:  Facebook Google Twitter Vk Yandex Mail.ru

Beck - Alcohol - текст песни, таба, видео

Печатать
Просмотров: 171
Song Title :  Alcohol
Album :  Loser B-side
Contributor :  alkaline
Notes :  TABBED BY: J. T. Foust, Revised by D-Rex


TAB Verse:
    D    C    G    C    A
E---2----0----3----0----0--------------------------|
B---3----1----0----1----2--------------------------|
G---2----0----0----0----2--------------------------|
D---0----2----0----2----2--------------------------|
A---X----3----2----3----0--------------------------|
E---X----X----3----X----X----0---------------------|
(X3)

    C    G    D
E---0----3----2------------------------------------|
B---1----0----3------------------------------------|
G---0----0----2------------------------------------|
D---2----0----0------------------------------------|
A---3----2----X------------------------------------|
E---X----3----X------------------------------------|

Chorus:

   E    D    A    D    A
E--0----2----0----2----0---------------------------|
B--0----3----2----3----2---------------------------|
G--1----2----2----2----2---------------------------|
D--2----0----2----0----2---------------------------|
A--2----X----0----X----0---------------------------|
E--0----X----X----X----X---------------------------|

   B   B7   F#   B7
E------2---------2---------------------------------|
B--0---4---------4---------------------------------|
G------2---------2---------------------------------|
D------4---------4---------------------------------|
A------2---------2---------------------------------|
E------X----2----X---------------------------------|
(Repeat these two bars twice)

    G   G    AhB    B    B7   F#    B7
E-------3----------------2----------2--------------|
B-------3----------------4----------4--------------|
G-------4----------------2----------2--------------|
D-------5----------------4----------4--------------|
A-------5----0h2----2----2----------2--------------|
E---3---3----------------X----2-----X--------------|

    G   G    E    D    B    A    B   B7   F#
E-------3----0------------------------2------------|
B-------3--------------0---------0----4------------|
G-------4-----------------------------2------------|
D-------5---------0-------------------4------------|
A-------5-------------------0---------2------------|
E---3---3-----------------------------X----2-------|


CHORD SHEET Verse :

D C G C A
x3
C G D

Chorus :

E D A D A
B B7 F# B7
x2

G G A B B7 F# B7
G G E D B A B B7 F# LYRICS Alcohol leaving me dry
Now it is time for pie
Taking them as they come
Alcohol, please give me some
Добавлено: 24.08.2013
Другие материалы по этой песне:
  • Аккорды и текст

Страница создана 30.04.2012
http://primanota.ru/beck/alcohol-chords.htm
Привет, Гость.
Предлагаем пройти революционный курс по гитаре.
Подарок от PrimaNota.Ru, забирай!