PrimaNota.ru - самый крупный в мире бесплатный архив песенных текстов, аккордов, табулатур и нот


Beautiful South - Quench Album - аккорды и текст, видео

Регистрация Запомнить меня
Войти через:  Facebook Google Twitter Vk Yandex Mail.ru

Beautiful South - Quench Album - аккорды и текст, видео

Печатать
Просмотров: 171
Quench Album
Beautiful South
		Quench - The Beautiful South
		----------------------------

Here are the complete chords (and some solos) 
for TBS album, Quench.
Except for 3 songs (Perfect 10, Big Coin and The 
Table) it's all my
"interpertation". I would like to thank A.Ott 
and S.Burrows for posting
the 3 songs mentioned above, whuih drove me to 
tab the rest of the album.
I believe the work is pretty correct, but any 
correction would be happily
accepted. For comments, corrections, compliments 
(just kiddin') and stuff
e-mail me at: yshkedy@ort.org.il
This version is w/o lyrics, because of 's 
restrictions (copyrights and
stuff) e-mail me for the complete lyrics version.

	Yotam "Kurgan" Shekdy

How Long's A Tear Take To Dry?
------------------------------
B     - 799877
E     - x79997
Eb    - x68886
E(IV) - x76454 (Based on C on the IV fret)

Intro:
e------------------|----------------|
B------------------|----------------|
G-/4---------------|-/4-------------|
D----5---6---------|----5---6-------|x2
A------7---7\5/7-5-|------7---------|
E------------------|----------5-6-7-|

Verse:
B E B E x 2
Eb E
Eb     B E B E

Bridge:
	  E(IV)
Look I'm sorry that I hurt you...
B E B E (Intro riff in the background)
E(IV)
B E B E (Intro riff in the background)

Chorus:
B	E	B	E x4
I'm so sorry, (make it plural)...
A			B E B E
The flowers smell ...

---------------------------------------------------

The Lure Of The Sea
-------------------

Verse: 
/A /Bb /B C Am D G x 3  (/A means - play the bass note, NOT the whole chord)
C C/B (x22010)

Bridge:
F		B
'Cause leather...
C Am
F B
C G

Chorus:
F5		   A5 x2
Maybe it's...
Cdim7 C   (Cdim7->x34242)
Am G C

After the second chorus there is a verse with different chords:
C D G Em

Freedom's taken ...
...they have nothing on me
Maybe it's the lure of the sea

Next chorus is different:
F5 A5 x2
C D G Em
C D G

Break:
Em D G# G F# x 2 Em

Last chorus:
F5 A5 x2
G#  C
G# G C

---------------------------------------------------

Big Coin
--------
chords by: A.Ott and S.Burrows

(Every line correspands with a line in the song)
Verse :
F
Bb
Gm  Bbm7
F Bb F C

Chorus:
        F  Bb
It's a tiny...
F Bb
Gm
C
C
Bb F
C  F

F     Bb              C			     \
Little heart, it ain't gold, it ain't silver |
F Bb C					     |
F Bb C					     | x 2
Gm C  					     |
Gm C  					     /

---------------------------------------------------

Dumb
----

Intro:
  Em		D
e----------7\-----------5\---|
B----------------------------|
G--------9------------7------|
D------9----------4-7--------| x2
A-7-10----------5------------|
E----------------------------|
 

Em D x4

Verse:
Em D x 4
		G Bm Am  x3  D
Dumb, dumb, dumb         x3

After the last verse (the labrdor) you change to the break:

break:
G Bm Am

    G	   Bm
The sun...
Am  Am
G Bm
Am Am
		G Bm Am Am Repeat till end of song
Dumb, dumb, dumb

---------------------------------------------------

Perfect 10
----------
chords by: A.Ott and S.Burrows

[intro]
A A A E, A A A E

Verse:
A A A E x2

Chorus:
A Bm D A
A Bm E A

Solo: Verse Chords

---------------------------------------------------

The Slide
---------

G C Am G - All the song (and there are easier songs ahead)

---------------------------------------------------

Look What I Found In My Beer
----------------------------

Intro: Am D xn

Verse:
Am D Am D x3
G       Am D (This last to chords carry to the next verse)

Chorus:
G
Look what I found in the drum
D Em D Em
G
D Em D Em

Em	     D		 G
Look what I found in the mic
Em D G x 2
D Eb Em	C
G D G

The last verse goes:
C
Look what we found in the dance
G
C
D
It makes the drink seem weak,
the friendship strong

Am D x 3
Am G

---------------------------------------------------

The Table
---------
chords by: A.Ott and S.Burrows

Verse:
F G Am x 2
F G C Am
F G Am 

Chorus:
          F   G 
I've been...
Am Am
F G
C Am
F G
Am Am
F G
C Am

C  		F  		C
Tables only turn when tables learn
C F G
C F x3 
C

---------------------------------------------------

Window Shopping For Blinds
--------------------------

Intro: D Em Em D D Em A D

Verse:
D Em Em D D Em A D

		G		D
It's like the heartbreak hotel...
A D
G D
A D

		D    Em
Well there's always...
     Em	    D
The glass...

	  G		A
It's like gatecrashing...
A
G D

.
.
.
But what if my husband (The same chords as in "It's like gatecrashing...")

Solo: D Em Em D

It's like writing...  (Starts like: "It's like gatecrashing...")

Last line:
			  G	 A	      D
Don't mind us, we're just window shopping for blinds

---------------------------------------------------

Pockets
-------

Intro:
e-------------------------------|
B-------------------------------|
G------7--7h9r7--6---------4----|
D--7-9---------------4-5-7---7--| x4 (At the start of the 3rd time play
A-------------------------------|     B-10 instead of the first note).
E-------------------------------|

Verse:
Bm A G A x 3
F#m  G (C G) (The chords in parenteses are not played before the chorus)

Chorus:
Bm A G F#m x 2
Bm G A F#m x 2
G F#m
G Bm
Repeat intro 2 times

After the second chorus there is a different riff:
e----------------------------------------|
B--------------7-------------------------|
G------7h9-7-6-------------4-6-7-6-4-----|
D--7h9---------------4h5-7-----------4-7-| x2
A----------------------------------------|
E----------------------------------------|

It is played twice before the verse and once after each line in it
Last verse:
Bm A G A riff (Bm A G A) (The chords in parenteses are played over the riff)
Bm A G A   riff (Bm A G A)
Bm A G F#m riff (Bm A G A)

F#m G
End on Bm

---------------------------------------------------

I May Be Ugly
-------------

I know this is going to be confusing, I'm sorry. 
There is no "verse" pattern.
I'm going to write parts of lines. Each 4 chord 
set refers to 2 lines in the song.
Listen to get the timing. Again, sorry for the 
mess.

Intro: F C G F x2

F C G F
With a face...
F C G F
He was...

    F A F#m E
He dreamt...
F C G F
But a lorry...

Chorus:
And he sings
F Em G F
I may be ugly...
F			C G F
party party politics...

F  A F#m E
C			   G   	    Bm C
It was always going to be pantomime
G Bm

F
When you feel like London...
	  C		G F
...pulled Newton - John

Chorus

F		A F#m
And it's driving you insane
E			F C G F
It's like talking...

F		Em G F
Breath like...
  F			C G
leave your flies ahoy...

F
And he sings
I may be ugly
			A F#m E
But I've got the bottle-opener
	C	G Bm
party party politics 
	C	G Bm
There is no orderly queue

F
C

-------------------------------------------------
--

Losing Things
--------------

I know this will osund strange, but as far as I 
can hear, the entire song
is Am D by the guitar, but the piano (or 
whatever else is in the background)
plays C D Try sometimes to alternate between 
the C and Am, and listen what 
sounds best. I can't decide.

Intro: C D x4

Am D - Entire song (I promised an easy song)

Before the solo here is a little change:

Bm Am
	I'm losing things

2:31
e----------------------8-7-5----------------------------------------------------
B------------------8---------8--5-5-5b-3/5--5-5-5-3---3-3-3/5-5-8-5--5-5-5-3----
G-7b9-9-9-9r7--7b9---9----------------------------------------------------------
D-------------------------------------------------------------------------------
A-------------------------------------------------------------------------------
E--------------------------------------------------------------------------8-7-5
  Am 			     3:02      wah-wah
e------------------------|--|-------------------- ------------/8-7-5---
B------------------------|--|-------------------- --------8----------8-
G--5---5---7b-7br-5------|--|---9-9-9-9\\------ 7h9r7---9---9----------
D--7-7---7---------7-5-7-|x4|-7--------------9--- ----9----------------
A------------------------|--|-------------------- ---------------------
E------------------------|--|-------------------- ---------------------
 

e------------------------------------------------ ----|
B-5-8-5-3-5-5----3-3-5-8-5--5-5-5-3-------------- ----|
G------------------------------------------------ ----|
D------------------------------------------------ ----|
A------------------------------------------------ ----|
E-------------------------------------8-7-5-let ring-|
 

-------------------------------------------------
--

Your Father And I
-----------------

And yet, another easy song:

Verse: A A D E

Break (Between verses, at the start of the song, 
there is only the piano part):

Piano:  e-10-9-12

Guitar: e-10-9--7-5-
	B-10-10-----

Piano:  e-2-5-4-4-

Outro:
 3:49
e----------------------------------|
B----------2-3-2---2---------------|
G-2----2-4-------4--2----4------1-.|
D--------------------------2------.| Repeat until fade
A----------------------------------|
E----------------------------------|
     
Добавлено: 11.07.2013
Другие материалы по этой песне:
  • Аккорды и текст

Страница создана 11.07.2013
http://primanota.ru/beautiful-south/quench-album-chords.htm
Привет, Гость.
Предлагаем пройти революционный курс по гитаре.
Подарок от PrimaNota.Ru, забирай!