PrimaNota.ru - самый крупный в мире бесплатный архив песенных текстов, аккордов, табулатур и нот


Beatles - With The Beatles (ver 2) (album) - таба, видео

Регистрация Запомнить меня
Войти через:  Facebook Google Twitter Vk Yandex Mail.ru

Beatles - With The Beatles (ver 2) (album) - таба, видео

Печатать
Просмотров: 90
                  THE BEATLES - WITH THE BEATLES

               1  IT WON'T BE LONG
               2  ALL I'VE GOT TO DO
               3  ALL MY LOVING
               4  DON'T BOTHER ME
               5  LITTLE CHILD
               6  TILL THERE WAS YOU
               7  PLEASE MR POSTMAN
               8  ROLL OVER BEETHOVEN
               9  HOLD ME TIGHT
              10  YOU'VE REALLY GOT A HOLD ON ME
              11  I WANNA BE YOUR MAN
              12  DEVIL IN HER HEART
              13  NOT A SECOND TIME
              14  MONEY (THAT'S WHAT I WANT)


  -------------------------------------------------------------

  THE BEATLES - IT WON'T BE LONG (Lennon & NcCartney) From WITH
                THE BEATLES album. Released on 22nd November 
                1963.

  -------------------------------------------------------------

  Tabbed by:PJVillanueva





  It won't be long yeh, yeh,
  It won't be long yeh, yeh,
  It won't be long yeh, yeh,
  Till I belong to you.

  Ev'ry night when ev'rybody has fun,
  Here am I sitting all on my own,

  It won't be long yeh, yeh,
  It won't be long yeh, yeh,
  It won't be long yeh, yeh,
  Till I belong to you.

  Since you left me I'm so alone,
  Now you're coming, you're coming home,
  I'll be good like I know I should,
 
  Ev'ry night the tears come down from my eyes,
  Ev'ry day I've done nothing but cry.
  It won't be long yeh, yeh.

  Since you left me I'm so alone,
  Now you're coming, you're coming home,
  I'll be good like I know I should,
  You're coming home, you're coming home.

  Ev'ry day we'll be happy, I know,
  Now I know that you won't leave me no more.
  It won't be long yeh, yeh.



                                                      It won't be 

          C#m    
e|------- 4---4-- ------- 4------|------- 4---4-- ------- 4---4--|
B|--------5---5-----------5------|--------5---5-----------5---5--|
G|--------6---6-----------6------|--------6---6-----------6---6--|
D|--------6---6-----------6------|--------6---6-----------6---6--|
A|--------4---4-----------4------|--------4---4-----------4---4--|
E|-------------------------------|-------------------------------|
  long    yeh,            yeh,            yeh         It won't be
                 (yeh,            yeh,            yeh


          E
e|------- 4---4-- ------- 4---4--|------- 4---4-- ------- 4---4--|
B|--------5---5-----------5---5--|--------5---5-----------5---5--|
G|--------4---4-----------4---4--|--------4---4-----------4---4--|
D|--------6---6-----------6---6--|--------6---6-----------6---6--|
A|--------7---7-----------7---7--|--------7---7-----------7---7--|
E|-------------------------------|-------------------------------|
  long    yeh,            yeh,            yeh         It won't be
                  yeh,            yeh,            yeh


          C#m                     A               Bbdim
e|------- 4---4-- ------- 4------|0------ 0------ 0------ 0------|
B|--------5---5-----------5------|2-------2-------2-------2------|
G|--------6---6-----------6------|2-------2-------0-------0------|
D|--------6---6-----------6------|2-------2-------2-------2------|
A|--------4---4-----------4------|0-------0-------1-------1------|
E|-------------------------------|-------------------------------|
  long    yeh,                Till I      belong              to           
                  yeh,)           


          E
e|------- ------- ------- -------|------- ------- ------- -------|
B|--------0---0-----------0---0--|--------0---0-----------0---0--|
G|--------1---1-----------1---1--|--------1---1-----------1---1--|
D|--------2---2-----------2---2--|--------2---2-----------2---2--|
A|--------2---2-----------2---2--|--------2---2-----------2---2--|
E|--------0---0-----------0---0--|--------0---0-----------0---0--|
  you
e|------- ------- ------- -------|------- ------- ------- -------|
B|-------------------------------|-------------------------------|
G|-------------------------------|-------------------------------|
D|--------2---1------------------|--------2---1------------------|
A|--------------/-4---2----------|--------------/-4---2----------|
E|------------------------3B4----|0-----------------------3B4----|



                              C                               E
e|------- ------- ------- -------|------- ------- ------- -------|
B|--------0---0-----------0---1--|--------1---1-----------1---0--|
G|--------1---1-----------1---0--|--------0---0-----------0---1--|
D|--------2---2-----------2---2--|--------2---2-----------2---2--|
A|--------2---2-----------2---3--|--------3---3-----------3---2--|
E|--------0---0-----------0---3--|--------3---3-----------3---0--|
          Ev'ry   night      when ev'rybody               has 
e|------- ------- ------- -------|------- ------- ------- -------|
B|-------------------------------|-------------------------------|
G|-------------------------------|-------------------------------|
D|-------------------------------|-------------------------------|
A|-------------------------------|-------------------------------|
E|0------------------------------|-------------------------------|



                   
e|------- ------- ------- -------|------- ------- ------- -------|
B|--------0---0-----------0------|--------0---0-----------0---0--|
G|--------1---1-----------1------|--------1---1-----------1---1--|
D|--------2---2-----------2------|--------2---2-----------2---2--|
A|--------2---2-----------2------|--------2---2-----------2---2--|
E|--------0---0-----------0------|--------0---0-----------0---0--|
  fun,                                    Here am I 
e|------- ------- ------- -------|------- ------- ------- -------|
B|-------------------------------|-------------------------------|
G|-------------------------------|-------------------------------|
D|--------2---1------------------|-------------------------------|
A|--------------/-4---2----------|-------------------------------|
E|------------------------3B4----|0------------------------------|



          C                   E
e|------- ------- ------- -------|------- ------- ------- -------|
B|--------1---1-----------1---0--|--------0---0-----------0------|
G|--------0---0-----------0---1--|--------1---1-----------1------|
D|--------2---2-----------2---2--|--------2---2-----------2------|
A|--------3---3-----------3---2--|--------2---2-----------2------|
E|--------3---3-----------3---0--|--------0---0-----------0------|
  sitting         all on  my      own,
e|------- ------- ------- -------|------- ------- ------- -------|
B|-------------------------------|-------------------------------|
G|-------------------------------|-------------------------------|
D|-------------------------------|--------2---1------------------|
A|-------------------------------|--------------/-4---2----------|
E|-------------------------------|------------------------3B4----|




e|------- ------- ------- -------|
B|--------0-0-0-0-0--------------|
G|--------1-1-1-1-1--------------|
D|--------2-2-2-2-2--------------|
A|--------2-2-2-2-2--------------|
E|--------0-0-0-0-0--------------|
                      It won't be
e|------- ------- ------- -------|
B|-------------------------------|
G|-------------------------------|
D|-------------------------------|
A|-------------------------------|
E|-------------------------------|



          C#m
e|------- 4---4-- ------- 4---4--|------- 4---4-- ------- 4---4--|
B|--------5---5-----------5---5--|--------5---5-----------5---5--|
G|--------6---6-----------6---6--|--------6---6-----------6---6--|
D|--------6---6-----------6---6--|--------6---6-----------6---6--|
A|--------4---4-----------4---4--|--------4---4-----------4---4--|
E|-------------------------------|-------------------------------|
  long    yeh,            yeh,            yeh         It won't be
                 (yeh,            yeh,            yeh


          E
e|------- 4---4-- ------- 4---4--|------- 4---4-- ------- 4---4--|
B|--------5---5-----------5---5--|--------5---5-----------5---5--|
G|--------4---4-----------4---4--|--------4---4-----------4---4--|
D|--------6---6-----------6---6--|--------6---6-----------6---6--|
A|--------7---7-----------7---7--|--------7---7-----------7---7--|
E|-------------------------------|-------------------------------|
  long    yeh,            yeh,            yeh         It won't be
                  yeh,            yeh,            yeh



          C#m                     A               Bbdim
e|------- 4---4-- ------- 4------|0------ ------- 0------ -------|
B|--------5---5-----------5------|2---------------2--------------|
G|--------6---6-----------6------|2---------------0--------------|
D|--------6---6-----------6------|2---------------2--------------|
A|--------4---4-----------4------|0---------------1--------------|
E|-------------------------------|-------------------------------|
  long    yeh,                Till I      belong              to           
                  yeh,)    

       

          E
e|------- ------- ------- -------|------- ------- ------- -------|
B|--------0---0-----------0------|--------0---0-----------0---0--|
G|--------1---1-----------1------|--------1---1-----------1---1--|
D|--------2---2-----------2------|--------2---2-----------2---2--|
A|--------2---2-----------2------|--------2---2-----------2---2--|
E|--------0---0-----------0------|--------0---0-----------0---0--|
  you                                                     Since you
e|------- ------- ------- -------|------- ------- ------- -------|
B|-------------------------------|-------------------------------|
G|-------------------------------|-------------------------------|
D|--------2---1------------------|--------2---1------------------|
A|--------------/-4---2----------|--------------/-4---2----------|
E|------------------------3B4----|0-----------------------3B4----|




                                          B+5
e|------- ------- ------- -------|------- ------- ------- -------|
B|--------0---0-----------0---0--|--------0---0-----------0---0--|
G|--------1---1-----------1---1--|--------0---0-----------0---0--|
D|--------2---2-----------2---2--|--------1---1-----------1---1--|
A|--------2---2-----------2---2--|--------2---2-----------2---2--|
E|-------------------------------|-------------------------------|
  left    me                      I'm so  alone,          Now you're 
e|------- ------- ------- -------|------- ------- ------- -------|
B|-------------------------------|-------------------------------|
G|-------------------------------|-------------------------------|
D|-------------------------------|-------------------------------|
A|-------------------------------|-------------------------------|
E|0------------------------------|-------------------------------|




          D6                              C#7
e|------- ------- ------- -------|------- ------- ------- -------|
B|--------3---3-----------3---3--|--------2---2-----------2---2--|
G|--------4---4-----------4---4--|--------4---4-----------4---4--|
D|--------4---4-----------4---4--|--------3---3-----------3---3--|
A|--------5---5-----------5---5--|--------4---4-----------4---4--|
E|-------------------------------|-------------------------------|
  coming,                 you're coming home,     



          A                               B
e|------- ------- ------- -------|------- ------- ------- -------|
B|--------2---2-----------2------|--------4---4-----------4------|
G|--------2---2-----------2------|--------4---4-----------4------|
D|--------2---2-----------2------|--------4---4-----------4------|
A|--------0---0-----------0------|--------2---2-----------2------|
E|-------------------------------|-------------------------------|
  I'll    be      good    like I  know I     should   You're coming 

          F#7                     B7
e|------- ------- ------- -------|5---5-- 5---5-- 5---5-- 5---5--|
B|--------5---5-----------5------|4---4---4---4---4---4---4---4--|
G|--------3---3-----------3------|2---2---2---2---2---2---2---2--|
D|--------2---2-----------2------|4---4---4---4---4---4---4---4--|
A|--------4---4-----------4------|2---2---2---2---2---2---2---2--|
E|--------2---2-----------2------|-------------------------------|
  home,           you're coming home.



          E                               C               
e|------- ------- ------- -------|------- ------- ------- -------|
B|--------0---0-----------0------|--------1---1-----------1------|
G|--------1---1-----------1------|--------0---0-----------0------|
D|--------2---2-----------2------|--------2---2-----------2------|
A|--------2---2-----------2------|--------3---3-----------3------|
E|--------0---0-----------0------|--------3---3-----------3------|
          Ev'ry   night      the  tears   come down  from my 



          E   
e|------- ------- ------- -------|------- ------- ------- -------|
B|--------0---0-----------0------|--------0---------------0------|
G|--------1---1-----------1------|--------1---------------1------|
D|--------2---2-----------2------|--------2---------------2------|
A|--------2---2-----------2------|--------2---------------2------|
E|--------0---0-----------0------|--------0---------------0------|
  eyes,                                   Ev'ry   day 
e|------- ------- ------- -------|------- ------- ------- -------|
B|-------------------------------|-------------------------------|
G|-------------------------------|-------------------------------|
D|--------2---1------------------|-------------------------------|
A|--------------/-4---2----------|-------------------------------|
E|------------------------3B4----|0------------------------------|




          C                   E
e|------- ------- ------- -------|------- ------- ------- -------|
B|--------1---------------1---0--|--------0---0-----------0------|
G|--------0---------------0---1--|--------1---1-----------1------|
D|--------2---------------2---2--|--------2---2-----------2------|
A|--------3---------------3---2--|--------2---2-----------2------|
E|--------3---------------3---0--|--------0---0-----------0------|
  I've    done nothing    but     cry.
e|------- ------- ------- -------|------- ------- ------- -------|
B|-------------------------------|-------------------------------|
G|-------------------------------|-------------------------------|
D|-------------------------------|--------2---1------------------|
A|-------------------------------|--------------/-4---2----------|
E|-------------------------------|------------------------3B4----|





e|------- ------- ------- -------|
B|----0---0-0-0-0-0--------------|
G|----1---1-1-1-1-1--------------|
D|----2---2-2-2-2-2--------------|
A|----2---2-2-2-2-2--------------|
E|----0---0-0-0-0-0--------------|
                      It won't be
e|------- ------- ------- -------|
B|-------------------------------|
G|-------------------------------|
D|-------------------------------|
A|-------------------------------|
E|0------------------------------|




          C#m
e|------- 4---4-- ------- 4------|------- 4---4-- ------- 4---4--|
B|--------5---5-----------5------|--------5---5-----------5---5--|
G|--------6---6-----------6------|--------6---6-----------6---6--|
D|--------6---6-----------6------|--------6---6-----------6---6--|
A|--------4---4-----------4------|--------4---4-----------4---4--|
E|-------------------------------|-------------------------------|
  long    yeh,            yeh,            yeh         It won't be
                 (yeh,            yeh,            yeh


          E
e|------- 4---4-- ------- 4---4--|------- 4---4-- ------- 4------|
B|--------5---5-----------5---5--|--------5---5-----------5------|
G|--------4---4-----------4---4--|--------4---4-----------4------|
D|--------6---6-----------6---6--|--------6---6-----------6------|
A|--------7---7-----------7---7--|--------7---7-----------7------|
E|-------------------------------|-------------------------------|
  long    yeh,            yeh,            yeh         It won't be
                  yeh,            yeh,            yeh



          C#m                     A               Bbdim
e|------- 4---4-- ------- 4------|0------ 0------ 0------ 0------|
B|--------5---5-----------5------|2-------2-------2-------2------|
G|--------6---6-----------6------|2-------2-------0-------0------|
D|--------6---6-----------6------|2-------2-------2-------2------|
A|--------4---4-----------4------|0-------0-------1-------1------|
E|-------------------------------|-------------------------------|
  long    yeh,                Till I      belong              to           
                  yeh,)           



          E
e|------- 0---0-- ------- 0---0--|------- 0---0-- ------- 0---0--|
B|--------0---0-----------0---0--|--------0---0-----------0---0--|
G|--------1---1-----------1---1--|--------1---1-----------1---1--|
D|--------2---2-----------2---2--|--------2---2-----------2---2--|
A|--------2---2-----------2---2--|--------2---2-----------2---2--|
E|--------0---0-----------0---0--|--------0---0-----------0---0--|
  you                                                     Since you
e|------- ------- ------- -------|------- ------- ------- -------|
B|-------------------------------|-------------------------------|
G|-------------------------------|-------------------------------|
D|--------2---1------------------|--------2---1------------------|
A|--------------/-4---2----------|--------------/-4---2----------|
E|------------------------3B4----|0-----------------------3B4----|




                                          B+5
e|------- ------- ------- -------|------- ------- ------- -------|
B|--------0---0-----------0---0--|--------0---0-----------0---0--|
G|--------1---1-----------1---1--|--------0---0-----------0---0--|
D|--------2---2-----------2---2--|--------1---1-----------1---1--|
A|--------2---2-----------2---2--|--------2---2-----------2---2--|
E|-------------------------------|-------------------------------|
  left    me                      I'm so  alone,          Now you're 
e|------- ------- ------- -------|------- ------- ------- -------|
B|-------------------------------|-------------------------------|
G|-------------------------------|-------------------------------|
D|-------------------------------|-------------------------------|
A|-------------------------------|-------------------------------|
E|0------------------------------|-------------------------------|




          D6                              C#7
e|------- ------- ------- -------|------- ------- ------- -------|
B|--------3---3-----------3---3--|--------2---2-----------2---2--|
G|--------4---4-----------4---4--|--------4---4-----------4---4--|
D|--------4---4-----------4---4--|--------3---3-----------3---3--|
A|--------5---5-----------5---5--|--------4---4-----------4---4--|
E|-------------------------------|-------------------------------|
  coming,                 you're coming home, 

    


          A                               B
e|------- ------- ------- -------|------- ------- ------- -------|
B|--------2---2-----------2------|--------4---4-----------4------|
G|--------2---2-----------2------|--------4---4-----------4------|
D|--------2---2-----------2------|--------4---4-----------4------|
A|--------0---0-----------0------|--------2---2-----------2------|
E|-------------------------------|-------------------------------|
  I'll    be      good    like I  know I     should   You're coming

 


          F#7                     B7
e|------- ------- ------- -------|5---5-- 5---5-- 5---5-- 5---5--|
B|--------5---5-----------5------|4---4---4---4---4---4---4---4--|
G|--------3---3-----------3------|2---2---2---2---2---2---2---2--|
D|--------2---2-----------2------|4---4---4---4---4---4---4---4--|
A|--------4---4-----------4------|2---2---2---2---2---2---2---2--|
E|--------2---2-----------2------|-------------------------------|
  home,           you're coming home.




          E                               C
e|------- ------- ------- -------|------- ------- ------- -------|
B|--------0---0-----------0------|--------1---1-----------1------|
G|--------1---1-----------1------|--------0---0-----------0------|
D|--------2---2-----------2------|--------2---2-----------2------|
A|--------2---2-----------2------|--------3---3-----------3------|
E|--------0---0-----------0------|--------3---3-----------3------|
          Ev'ry   day             We'll   be  happy       I




          E
e|------- ------- ------- -------|------- ------- ------- -------|
B|--------0---0-----------0------|--------0---0-----------0------|
G|--------1---1-----------1------|--------1---1-----------1------|
D|--------2---2-----------2------|--------2---2-----------2------|
A|--------2---2-----------2------|--------2---2-----------2------|
E|--------0---0-----------0------|--------0---0-----------0------|
  know                                    Now I   know        that
e|------- ------- ------- -------|------- ------- ------- -------|
B|-------------------------------|-------------------------------|
G|-------------------------------|-------------------------------|
D|--------2---1------------------|-------------------------------|
A|--------------/-4---2----------|-------------------------------|
E|------------------------3B4----|0------------------------------|




          C                               E
e|------- ------- ------- -------|------- ------- ------- -------|
B|--------1---1-----------1---1--|--------0---0-----------0---0--|
G|--------0---0-----------0---0--|--------1---1-----------1---1--|
D|--------2---2-----------2---2--|--------2---2-----------2---2--|
A|--------3---3-----------3---3--|--------2---2-----------2---2--|
E|--------3---3-----------3---3--|--------0---0-----------0---0--|
  you     won't leave me  no      more
e|------- ------- ------- -------|------- ------- ------- -------|
B|-------------------------------|-------------------------------|
G|-------------------------------|-------------------------------|
D|-------------------------------|--------2---1------------------|
A|-------------------------------|--------------/-4---2----------|
E|-------------------------------|------------------------3B4----|






e|------- ------- ------- -------|
B|--------0-0-0-0-0--------------|
G|--------1-1-1-1-1--------------|
D|--------2-2-2-2-2--------------|
A|--------2-2-2-2-2--------------|
E|--------0-0-0-0-0--------------|
                      It won't be
e|------- ------- ------- -------|
B|-------------------------------|
G|-------------------------------|
D|-------------------------------|
A|-------------------------------|
E|0------------------------------|




          C#m
e|------- 4---4-- ------- 4---4--|------- 4---4-- ------- 4---4--|
B|--------5---5-----------5---5--|--------5---5-----------5---5--|
G|--------6---6-----------6---6--|--------6---6-----------6---6--|
D|--------6---6-----------6---6--|--------6---6-----------6---6--|
A|--------4---4-----------4---4--|--------4---4-----------4---4--|
E|-------------------------------|-------------------------------|
  long    yeh,            yeh,            yeh         It won't be
                 (yeh,            yeh,            yeh


          E
e|------- 4---4-- ------- 4------|------- 4---4-- ------- 4------|
B|--------5---5-----------5------|--------5---5-----------5------|
G|--------4---4-----------4------|--------4---4-----------4------|
D|--------6---6-----------6------|--------6---6-----------6------|
A|--------7---7-----------7------|--------7---7-----------7------|
E|-------------------------------|-------------------------------|
  long    yeh,            yeh,            yeh         It won't be
                  yeh,            yeh,            yeh



                                  (.
          C#m                     A
e|------- 4---4-- ------- 4------|0------ ------- ------- -------|
B|--------5---5-----------5------|2------------------------------|
G|--------6---6-----------6------|2------------------------------|
D|--------6---6-----------6------|2------------------------------|
A|--------4---4-----------4------|0------------------------------|
E|-------------------------------|-------------------------------|
  long    yeh,               Till I belong                to           
                  yeh,)           



                                  (.
          G7      F#7     F7      Emaj7
e|------- ------- ------- -------|------- ------- ------- -------|
B|--------3-------2-------1------|0------------------------------|
G|--------4-------3-------2------|1------------------------------|
D|--------3-------2-------1------|1------------------------------|
A|--------5-------4-------4------|2------------------------------|
E|--------3-------2-------1------|0------------------------------|
  you
e|------- ------- ------- -------|------- ------- ------- -------|
B|-------------------------------|4------------------------------|
G|-------------------------------|4------------------------------|
D|-------------------------------|6------------------------------|
A|-------------------------------|6------------------------------|
E|-------------------------------|0------------------------------|






        B  Bend
        R  Release
        /  slide up
        \  slide down
        H  hammer-on
        P  pull-off
        ~  vibrato
        +  harmonic
        x  Mute note
        . - play note like a dot in standard notation
        ^ - ties two notes together
        (. Pause



  ----------------------------------------------------------------

  THE BEATLES - ALL I'VE GOT TO DO (Lennon & McCartney) From WITH 
                THE BEATLES album. Released on 22nd November 1963.

  ----------------------------------------------------------------

  Tabbed by:PJVillanueva




  Whenever I want you around, yeah.
  All I gotta do,
  Is call you on the phone,
  And you'll come running home,
  Yeah, that's all I gotta do.

  And when I, I want to kiss you, yeah.
  All I gotta do,
  Is whisper in your ear
  The words you long to hear,
  And I'll be kissin' you.

  And the same goes for me,
  Whenever you want me at all.
  I'll be here, yes I will, whenever you call.
  You just gotta call on me, yeah,
  You just gotta call on me.

  And when I, I want to kiss you, yeah.
  All I gotta do,
  Is call you on the phone,
  And you'll come running home,
  Yeah, that's all I gotta do.

  And the same goes for me,
  Whenever you want me at all.
  I'll be here, yes I will, whenever you call.
  You just gotta call on me, yeah,
  You just gotta call on me.

  Mmmmmmmmmmmmmmmmmm......



                                 (.     
                              E+5sus4add9
e|------- ------- ------- -------|5------ ------- ------- -------|
B|-------------------------------|7------------------------------|
G|-------------------------------|5------------------------------|
D|-------------------------------|6------------------------------|
A|----------------------------7--|-------------------------------|
E|-------------------------------|-------------------------------|
                                          Whenever            I 
e|------- ------- ------- -------|------- ------- ------- -------|
B|-------------------------------|-------------------------------|
G|-------------------------------|-------------------------------|
D|-------------------------------|-------------------------------|
A|-------------------------------|----------------------------4--|
E|-------------------------------|----------------------------4--| 
     

  00:03
          C#m
e|------- 4------ ----4-- ----4--|------- 4------ ----4-- ----4--|
B|--------5-----------5-------5--|--------5-----------5-------5--|
G|--------6-----------6-------6--|--------6-----------6-------6--|
D|--------6-----------6-------6--|--------6-----------6-------6--|
A|--------4-----------4-------4--|--------4-----------4-------4--|
E|-------------------------------|-------------------------------|
                                                  want    you around,
e|------- ------- ------- -------|------- ------- ------- -------|
B|-------------------------------|-------------------------------|
G|-------------------------------|-------------------------------|
D|-------------------------------|-------------------------------|
A|4-----------4------------------|4-----------4------------------|
E|4-----------4------------------|4-----------4------------------|



          E
e|------- 4------ ----4-- ----4--|------- 4------ ----4-- ----4--|
B|--------5-----------5-------5--|--------5-----------5-------5--|
G|--------4-----------4-------4--|--------4-----------4-------4--|
D|--------6-----------6-------6--|--------6-----------6-------6--|
A|--------7-----------7-------7--|--------7-----------7-------7--|
E|-------------------------------|-------------------------------|
          yeah.                                   All I   gotta
e|------- ------- ------- -------|------- ------- ------- -------|
B|-------------------------------|-------------------------------|
G|-------------------------------|-------------------------------|
D|2-----------2------------------|2------------2-----------------|
A|2-----------2------------------|2------------2-----------------|
E|-------------------------------|-------------------------------|



          C#m
e|------- 4------ ----4-- ----4--|------- 4------ ----4-- ----4--|
B|--------5-----------5-------5--|--------5-----------5-------5--|
G|--------6-----------6-------6--|--------6-----------6-------6--|
D|--------6-----------6-------6--|--------6-----------6-------6--|
A|--------4-----------4-------4--|--------4-----------4-------4--|
E|-------------------------------|-------------------------------|
  do                                                  is
e|------- ------- ------- -------|------- ------- ------- -------|
B|-------------------------------|-------------------------------|
G|-------------------------------|-------------------------------|
D|-------------------------------|-------------------------------|
A|4-----------4------------------|4-----------4------------------|
E|4-----------4------------------|4-----------4------------------|

 
  00:15
  F#m
e|2------ 2---2-- 2---2-- 2---2--|------- 2---2-- ----2-- 2------|
B|2-------2---2---2---2---2---2--|--------2---2-------2---2------|
G|2-------2---2---2---2---2---2--|--------2---2-------2---2------|
D|4-------4---4---4---4---4---4--|--------4---4-------4---4------|
A|4-------4---4---4---4---4---4--|--------4---4-------4---4------|
E|2-------2---2---2---2---2---2--|--------2---2-------2---2------|
  call    on  the phone,      and you'll  running home,   yeah
      you                             come

  Am                                      E
e|5------ 5------ ----5-- 5---5--|------- 0---0-- ----0-- 0------|
B|5-------5-----------5---5---5--|--------0---0-------0---0------|
G|5-------5-----------5---5---5--|--------1---1-------1---1------|
D|7-------7-----------7---7---7--|--------2---2-------2---2------|
A|7-------7-----------7---7---7--|--------2---2-------2---2------|
E|5-------5-----------5---5---5--|--------0---0-------0---0------|
      that's  all I                   gotta   do
e|------- 5------ ----5-- ----5--|------- 4------ ----4-- ----4--|
B|--------5-----------5-------5--|--------5-----------5-------5--|
G|--------5-----------5-------5--|--------4-----------4-------4--|
D|-------------------------------|-------------------------------|
A|-------------------------------|-------------------------------|
E|-------------------------------|-------------------------------|


                                  00:25
                                  C#m
e|0------ ------- ------- -------|4------ 4------ 4---4-- 4---4--|
B|0------------------------------|5-------5-------5---5---5---5--|
G|1------------------------------|6-------6-------6---6---6---6--|
D|2------------------------------|6-------6-------6---6---6---6--|
A|2------------------------------|4-------4-------4---4---4---4--|
E|0------------------------------|-------------------------------|
                  And     when I


                                  E
e|4------ 4---4-- ----4-- 4---4--|4------ 4------ ----4-- 4---4--|
B|5-------5---5-------5---5---5--|5-------5-----------5---5---5--|
G|6-------6---6-------6---6---6--|4-------4-----------4---4---4--|
D|6-------6---6-------6---6---6--|6-------6-----------6---6---6--|
A|4-------4---4-------4---4---4--|7-------7-----------7---7---7--|
E|-------------------------------|-------------------------------|
                  I       wanna   kiss    you,    yeah


                                          C#m
e|------- 4------ ----4-- 4---4--|------- 4------ 4---4-- ----4--|
B|--------5-----------5---5---5--|--------5-------5---5-------5--|
G|--------4-----------4---4---4--|--------6-------6---6-------6--|
D|--------6-----------6---6---6--|--------6-------6---6-------6--|
A|--------7-----------7---7---7--|--------4-------4---4-------4--|
E|-------------------------------|-------------------------------|
                  All I   gotta   do

                                  00:38
                                  F#m
e|------- 4---4-- ----4-- 4---4--|2------ 2---2-- ----2-- 2---2--|
B|--------5---5-------5---5---5--|2-------2---2-------2---2---2--|
G|--------6---6-------6---6---6--|2-------2---2-------2---2---2--|
D|--------6---6-------6---6---6--|4-------4---4-------4---4---4--|
A|--------4---4-------4---4---4--|4-------4---4-------4---4---4--|
E|-------------------------------|2-------2---2-------2---2---2--|
                      is          whisper in      ear         the
                                              your

                                  Am
e|----2-- 2---2-- ----2-- 2------|5------ 5---5-- ----5-- 5------|
B|----2---2---2-------2---2------|5-------5---5-------5---5------|
G|----2---2---2-------2---2------|5-------5---5-------5---5------|
D|----4---4---4-------4---4------|7-------7---7-------7---7------|
A|----4---4---4-------4---4------|7-------7---7-------7---7------|
E|----2---2---2-------2---2------|5-------5---5-------5---5------|
  words   long    hear,       and     I'll                   be
      you     to

          E
e|------- 0---0-- ----0-- 0---0--|0------ 0---0-- 0------ 0------|
B|--------0---0-------0---0---0--|0-------0---0---0-------0------|
G|--------1---1-------1---1---1--|1-------1---1---1-------1------|
D|--------2---2-------2---2---2--|2-------2---2---2-------2------|
A|--------2---2-------2---2---2--|2-------2---2---2-------2------|
E|--------0---0-------0---0---0--|0-------0---0---0-------0------|
      kissing you                         And the same    goes for

  00:48
  A
e|5------ 5---5-- ----5-- 5------|5------ 5---5-- ----5-- 5------|
B|5-------5---5-------5---5------|5-------5---5-------5---5------|
G|6-------6---6-------6---6------|6-------6---6-------6---6------|
D|7-------7---7-------7---7------|7-------7---7-------7---7------|
A|7-------7---7-------7---7------|7-------7---7-------7---7------|
E|5-------5---5-------5---5------|5-------5---5-------5---5------|
  me,         whenever        you want   at  all.        I'll 
                                      me                      be

  C#m
e|4------ 4---4-- ----4-- 4------|4------ 4---4-- ----4-- 4------|
B|5-------5---5-------5---5------|5-------5---5-------5---5------|
G|6-------6---6-------6---6------|6-------6---6-------6---6------|
D|6-------6---6-------6---6------|6-------6---6-------6---6------|
A|4-------4---4-------4---4------|4-------4---4-------4---4------|
E|-------------------------------|-------------------------------|
  here,   yes I   will,       whenever    you call.           You


  A                               E               C#m
e|5------ 5---5-- ----5-- 5------|0------ 0------ 4------ 4------|
B|5-------5---5-------5---5------|0-------0-------5-------5------|
G|6-------6---6-------6---6------|1-------1-------6-------6------|
D|7-------7---7-------7---7------|2-------2-------6-------6------|
A|7-------7---7-------7---7------|2-------2-------4-------4------|
E|5-------5---5-------5---5------|0-------0----------------------|
  just    gotta   call        me,             yeah,           You
                      on

  A                               E
e|5------ 5---5-- ------- 5------|0------ 0---0-- ----0-- 0------|
B|5-------5---5-----------5------|0-------0---0-------0---0------|
G|6-------6---6-----------6------|1-------1---1-------1---1------|
D|7-------7---7-----------7------|2-------2---2-------2---2------|
A|7-------7---7-----------7------|2-------2---2-------2---2------|
E|5-------5---5-----------5------|0-------0---0-------0---0------|
  just    gotta   call        me.
                      on
                                  01:05
              x           X   x   C#m
e|0------ ------- ------- -------|4------ 4------ ----4-- ----4--|
B|0------------------------------|5-------5-----------5-------5--|
G|1------------------------------|6-------6-----------6-------6--|
D|2------------------------------|6-------6-----------6-------6--|
A|2------------------------------|4-------4-----------4-------4--|
E|0------------------------------|-------------------------------|
                  And     when I, 


                                          E
e|4------ 4---4-- 4---4-- ----4--|------- 4------ 4---4-- 4---4--|
B|5-------5---5---5---5-------5--|--------5-------5---5---5---5--|
G|6-------6---6---6---6-------6--|--------4-------4---4---4---4--|
D|6-------6---6---6---6-------6--|--------6-------6---6---6---6--|
A|4-------4---4---4---4-------4--|--------7-------7---7---7---7--|
E|-------------------------------|-------------------------------|
                  I       want to kiss    you,    yeah.


                                  C#m
e|------- 4---4-- ----4-- 4---4--|4------ 4------ 4---4-- ----4--|
B|--------5---5-------5---5---5--|5-------5-------5---5-------5--|
G|--------4---4-------4---4---4--|6-------6-------6---6-------6--|
D|--------6---6-------6---6---6--|6-------6-------6---6-------6--|
A|--------7---7-------7---7---7--|4-------4-------4---4-------4--|
E|-------------------------------|-------------------------------|
                  All I   gotta   do,

                                  01:18
                                  F#m
e|------- 4---4-- ----4-- 4------|2------ 2---2-- 2---2-- 2---2--|
B|--------5---5-------5---5------|2-------2---2---2---2---2---2--|
G|--------6---6-------6---6------|2-------2---2---2---2---2---2--|
D|--------6---6-------6---6------|4-------4---4---4---4---4---4--|
A|--------4---4-------4---4------|4-------4---4---4---4---4---4--|
E|-------------------------------|2-------2---2---2---2---2---2--|
                      Is          call    on  the phone       and
                                      you

                                  Am
e|2---2-- 2---2-- 2---2-- 2------|5------ 5---5-- 5---5-- 5---5--|
B|2---2---2---2---2---2---2------|5-------5---5---5---5---5---5--|
G|2---2---2---2---2---2---2------|5-------5---5---5---5---5---5--|
D|4---4---4---4---4---4---4------|7-------7---7---7---7---7---7--|
A|4---4---4---4---4---4---4------|7-------7---7---7---7---7---7--|
E|2---2---2---2---2---2---2------|5-------5---5---5---5---5---5--|
  you'll  running home,       Yeah,   that's  all  I
      come

  E
e|0------ 0---0-- ----0-- 0---0--|0------ 0------ 0---0-- 0------|
B|0-------0---0-------0---0---0--|0-------0-------0---0---0------|
G|1-------1---1-------1---1---1--|1-------1-------1---1---1------|
D|2-------2---2-------2---2---2--|2-------2-------2---2---2------|
A|2-------2---2-------2---2---2--|2-------2-------2---2---2------|
E|0-------0---0-------0---0---0--|0-------0-------0---0---0------|
      gotta   do.                         And the same    goes for 

  01:28
  A
e|5------ 5---5-- ----5-- 5------|5---5-- 5------ 5---5-- 5---5--|
B|5-------5---5-------5---5------|5---5---5-------5---5---5---5--|
G|6-------6---6-------6---6------|6---6---6-------6---6---6---6--|
D|7-------7---7-------7---7------|7---7---7-------7---7---7---7--|
A|7-------7---7-------7---7------|7---7---7-------7---7---7---7--|
E|5-------5---5-------5---5------|5---5---5-------5---5---5---5--|
  me,         whenever        you want    at all.     I'll      
                                      me

  C#m
e|4------ 4---4-- 4------ 4------|------- 4---4-- ----4-- 4------|
B|5-------5---5---5-------5------|--------5---5-------5---5------|
G|6-------6---6---6-------6------|--------6---6-------6---6------|
D|6-------6---6---6-------6------|--------6---6-------6---6------|
A|4-------4---4---4-------4------|--------4---4-------4---4------|
E|-------------------------------|-------------------------------|
  be here,    I   will,       whenever    you call.           You
          yes
 
  01:35
  A                               E                       C#m
e|5------ 5------ 5---5-- 5------|0------ 0------ ------- 4------|
B|5-------5-------5---5---5------|0-------0---------------5------|
G|6-------6-------6---6---6------|1-------1---------------6------|
D|7-------7-------7---7---7------|2-------2---------------6------|
A|7-------7-------7---7---7------|2-------2---------------4------|
E|5-------5-------5---5---5------|0-------0----------------------|
  just    gotta   call        me,             yeah,           You
                      on

  A                               E
e|5------ 5---5-- ----5-- 5------|0------ 0---0-- 0---0-- 0------|
B|5-------5---5-------5---5------|0-------0---0---0---0---0------|
G|6-------6---6-------6---6------|1-------1---1---1---1---1------|
D|7-------7---7-------7---7------|2-------2---2---2---2---2------|
A|7-------7---7-------7---7------|2-------2---2---2---2---2------|
E|5-------5---5-------5---5------|0-------0---0---0---0---0------|
  just    gotta   call        me,             oh              You
                      on

  A                               E
e|5------ 5---5-- 5---5-- 5------|0------ 0---0-- ----0-- 0------|
B|5-------5---5---5---5---5------|0-------0---0-------0---0------|
G|6-------6---6---6---6---6------|1-------1---1-------1---1------|
D|7-------7---7---7---7---7------|2-------2---2-------2---2------|
A|7-------7---7---7---7---7------|2-------2---2-------2---2------|
E|5-------5---5---5---5---5------|0-------0---0-------0---0------|
  just    gotta   call        me
                      on
                                  01:49
              x           X   x   C#m
e|0------ ------- ------- -------|4------ 4---4-- ----4-- ----4--|
B|0------------------------------|5-------5---5-------5-------5--|
G|1------------------------------|6-------6---6-------6-------6--|
D|2------------------------------|6-------6---6-------6-------6--|
A|2------------------------------|4-------4---4-------4-------4--|
E|0------------------------------|-------------------------------|
                  mmm mmmmmmm mmmmmmmmmmmmmmmmmmmmmmmmmmmmmmmmmmm
e|------- ------- ------- -------|------- ------- ------- -------|
B|-------------------------------|-------------------------------|
G|-------------------------------|-------------------------------|
D|-------------------------------|-------------------------------|
A|-------------------------------|4-----------4------------------|
E|-------------------------------|4-----------4------------------|



                                          E
e|------- 4------ ----4-- ----4--|------- 4------ ----4-- ----4--|
B|--------5-----------5-------5--|--------5-----------5-------5--|
G|--------6-----------6-------6--|--------4-----------4-------4--|
D|--------6-----------6-------6--|--------6-----------6-------6--|
A|--------4-----------4-------4--|--------7-----------7-------7--|
E|-------------------------------|-------------------------------|
  mmmmmmmmmmmm    mmmmmmmmmmmmmmmmmmmmmmmmmmmmmmmmmmmmm
e|------- ------- ------- -------|------- ------- ------- -------|
B|-------------------------------|-------------------------------|
G|-------------------------------|-------------------------------|
D|-------------------------------|2-----------2------------------|
A|4-----------4------------------|2-----------2------------------|
E|4-----------4------------------|-------------------------------|
                                          .............Fade......


                                          C#m
e|------- 4---4-- ----4-- 4---4--|------- 4---4-- ----4-- ----4--|
B|--------5---5-------5---5---5--|--------5---5-------5-------5--|
G|--------4---4-------4---4---4--|--------6---6-------6-------6--|
D|--------6---6-------6---6---6--|--------6---6-------6-------6--|
A|--------7---7-------7---7---7--|--------4---4-------4-------4--|
E|-------------------------------|-------------------------------|
                  mmmmmmmmmmmmmmmmmmmmmmmmmmmmmmmmmmmmmmm
e|------- ------- ------- -------|------- ------- ------- -------|
B|-------------------------------|-------------------------------|
G|-------------------------------|-------------------------------|
D|2-----------2------------------|-------------------------------|
A|2-----------2------------------|4-----------4------------------|
E|-------------------------------|4-----------4------------------|
  ........................................................






        B  Bend
        R  Release
        /  slide up
        \  slide down
        H  hammer-on
        P  pull-off
        ~  vibrato
        +  harmonic
        x  Mute note
        . - play note like a dot in standard notation
        ^ - ties two notes together
        (. Pause



  --------------------------------------------------------------

  THE BEATLES - ALL MY LOVING (Lennon & McCartney) From WITH THE 
                BEATLES album. Released on 22nd November 1963

  --------------------------------------------------------------

  Tabbed by:PJVillanueva





  Close your eyes and I'll kiss you,
  Tomorrow I'll miss you;
  Remember I'll always be true.
  And then while I'm away,
  I'll write home ev'ry day,
  And I'll send all my loving to you.

  I'll pretend That I'm kissing
  the lips I am missing
  And hope that my dreams will come true.
  And then while I'm away,
  I'll write home ev'ry day,
  And I'll send all my loving to you.

  All my loving I will send to you.
  All my loving, darling I'll be true.



                                              Close  your 
                                                         eyes
    F#m                         B
  e|2-2-2- 2-2-2- 2-2-2- 2---2-|2-2-2- 2-2-2- 2-2-2- 2-----|
  B|2-2-2--2-2-2--2-2-2--2---2-|4-4-4--4-4-4--4-4-4--4-----|
  G|2-2-2--2-2-2--2-2-2--2---2-|4-4-4--4-4-4--4-4-4--4-----|
  D|4-4-4--4-4-4--4-4-4--4---4-|4-4-4--4-4-4--4-4-4--4-----|
  A|4-4-4--4-4-4--4-4-4--4---4-|2-2-2--2-2-2--2-2-2--2-----|
  E|2-2-2--2-2-2--2-2-2--2---2-|---------------------------|
                  and I'll   kiss   you              tomorrow


    E                           C#m
  e|4-4-4- 4-4-4- 4-4-4- 4-4-4-|4-4-4- 4-4-4- 4-4-4- 4-----|
  B|5-5-5--5-5-5--5-5-5--5-5-5-|5-5-5--5-5-5--5-5-5--5-----|
  G|4-4-4--4-4-4--4-4-4--4-4-4-|6-6-6--6-6-6--6-6-6--6-----|
  D|6-6-6--6-6-6--6-6-6--6-6-6-|6-6-6--6-6-6--6-6-6--6-----|
  A|7-7-7--7-7-7--7-7-7--7-7-7-|4-4-4--4-4-4--4-4-4--4-----|
  E|---------------------------|---------------------------|
                      I'll      miss                 Remember
                                    you

    A                           F#m
  e|5-5-5- 5-5-5- 5-5-5- 5-5-5-|2-2-2- 2-2-2- 2-2-2- 2-----|
  B|5-5-5--5-5-5--5-5-5--5-5-5-|2-2-2--2-2-2--2-2-2--2-----|
  G|6-6-6--6-6-6--6-6-6--6-6-6-|2-2-2--2-2-2--2-2-2--2-----|                    
  D|7-7-7--7-7-7--7-7-7--7-7-7-|4-4-4--4-4-4--4-4-4--4-----|
  A|7-7-7--7-7-7--7-7-7--7-7-7-|4-4-4--4-4-4--4-4-4--4-----|
    E|5-5-5--5-5-5--5-5-5--5-5-5-|2-2-2--2-2-2--2-2-2--2---|
                       I'll   always               be


    D                           B7
  e|2-2-2- 2-2-2- 2-2-2- 2-2-0-|2-2-2- 2-2-2- 2-2-2- 2-2---|
  B|3-3-3--3-3-3--3-3-3--3-3-0-|0-0-0--0-0-0--0-0-0--0-0---|
  G|2-2-2--2-2-2--2-2-2--2-2-0-|2-2-2--2-2-2--2-2-2--2-2---|
  D|0-0-0--0-0-0--0-0-0--0-0-0-|1-1-1--1-1-1--1-1-1--1-1---|
  A|---------------------------|2-2-2--2-2-2--2-2-2--2-2---|
  E|---------------------------|---------------------------|
    true                                      And    then

    00:13
    F#m                         B
  e|2-2-2- 2-2-2- 2-2-2- 2-2-2-|2-2-2- 2-2-2- 2-2-2- 2-2-2-|
  B|2-2-2--2-2-2--2-2-2--2-2-2-|4-4-4--4-4-4--4-4-4--4-4-4-|
  G|2-2-2--2-2-2--2-2-2--2-2-2-|4-4-4--4-4-4--4-4-4--4-4-4-|
  D|4-4-4--4-4-4--4-4-4--4-4-4-|4-4-4--4-4-4--4-4-4--4-4-4-|
  A|4-4-4--4-4-4--4-4-4--4-4-4-|2-2-2--2-2-2--2-2-2--2-2-2-|
  E|2-2-2--2-2-2--2-2-2--2-2-2-|---------------------------|
    while         I'm    away,                I'll   write

 
    E                           C#m
  e|4-4-4- 4-4-4- 4-4-4- 4-4---|4-4-4- 4-4-4- 4-4-4- 4-----|
  B|5-5-5--5-5-5--5-5-5--5-5---|5-5-5--5-5-5--5-5-5--5-----|
  G|4-4-4--4-4-4--4-4-4--4-4---|6-6-6--6-6-6--6-6-6--6-----|
  D|6-6-6--6-6-6--6-6-6--6-6---|6-6-6--6-6-6--6-6-6--6-----|
  A|7-7-7--7-7-7--7-7-7--7-7---|4-4-4--4-4-4--4-4-4--4-----|
  E|---------------------------|---------------------------|
    home          ev'ry      day,                 And 
                                                     I'll

    A                           B
  e|5-5-5- 5-5-5- 5-5-5- 5-5-5-|7-7-7- 7-7-7- 7-7-7- 7-7---|
  B|5-5-5--5-5-5--5-5-5--5-5-5-|7-7-7--7-7-7--7-7-7--7-7---|
  G|6-6-6--6-6-6--6-6-6--6-6-6-|8-8-8--8-8-8--8-8-8--8-8---|
  D|7-7-7--7-7-7--7-7-7--7-7-7-|9-9-9--9-9-9--9-9-9--9-9---|
  A|7-7-7--7-7-7--7-7-7--7-7-7-|9-9-9--9-9-9--9-9-9--9-9---|
    E|5-5-5--5-5-5--5-5-5--5-5-5-|7-7-7--7-7-7--7-7-7--7-7-|
  send          all    my     loving               to  you.


    E
  e|4-4-4- 4-4-4- 4-4-4- 4-4-4-|4----- ------ ------ ------|
  B|5-5-5--5-5-5--5-5-5--5-5-5-|5--------------------------|
  G|4-4-4--4-4-4--4-4-4--4-4-4-|4--------------------------|
  D|6-6-6--6-6-6--6-6-6--6-6-6-|6--------------------------|
  A|7-7-7--7-7-7--7-7-7--7-7-7-|6--------------------------|
  E|---------------------------|---------------------------|
                                              I'll   pretend

    00:25
    F#m                         B
  e|2-2-2- 2-2-2- 2-2-2- 2-2-2-|2-2-2- 2-2-2- 2-2-2- 2-----|
  B|2-2-2--2-2-2--2-2-2--2-2-2-|4-4-4--4-4-4--4-4-4--4-----|
  G|2-2-2--2-2-2--2-2-2--2-2-2-|4-4-4--4-4-4--4-4-4--4-----|
  D|4-4-4--4-4-4--4-4-4--4-4-4-|4-4-4--4-4-4--4-4-4--4-----|
  A|4-4-4--4-4-4--4-4-4--4-4-4-|2-2-2--2-2-2--2-2-2--2-----|
  E|2-2-2--2-2-2--2-2-2--2-2-2-|---------------------------|
                  That          kissing              the 
                      I'm

    E                           C#m
  e|4-4-4- 4-4-4- 4-4-4- 4---4-|4-4-4- 4-4-4- 4-4-4- 4---4-|
  B|5-5-5--5-5-5--5-5-5--5---5-|5-5-5--5-5-5--5-5-5--5---5-|
  G|4-4-4--4-4-4--4-4-4--4---4-|6-6-6--6-6-6--6-6-6--6---6-|
  D|6-6-6--6-6-6--6-6-6--6---6-|6-6-6--6-6-6--6-6-6--6---6-|
  A|7-7-7--7-7-7--7-7-7--7---7-|4-4-4--4-4-4--4-4-4--4---4-|
  E|---------------------------|---------------------------|
    lips       I         am     missing              And

              
    A                           F#m
  e|5-5-5- 5-5-5- 5-5-5- 5-----|2-2-2- 2-2-2- 2-2-2- 2-2-2-|
  B|5-5-5--5-5-5--5-5-5--5-----|2-2-2--2-2-2--2-2-2--2-2-2-|
  G|6-6-6--6-6-6--6-6-6--6-----|2-2-2--2-2-2--2-2-2--2-2-2-|
  D|7-7-7--7-7-7--7-7-7--7-----|4-4-4--4-4-4--4-4-4--4-4-4-|
  A|7-7-7--7-7-7--7-7-7--7-----|4-4-4--4-4-4--4-4-4--4-4-4-|
  E|5-5-5--5-5-5--5-5-5--5-----|2-2-2--2-2-2--2-2-2--2-2-2-|
    hope          that          dreams        will   come
                      my

    D                           B7
  e|2-2-2- 2-2-2- 2-2-2- 2-2-0-|2-2-2- 2---2- 2-2-2- 2-2-2-|
  B|3-3-3--3-3-3--3-3-3--3-3-0-|0-0-0--0---0--0-0-0--0-0-0-|
  G|2-2-2--2-2-2--2-2-2--2-2-0-|2-2-2--2---2--2-2-2--2-2-2-|
  D|0-0-0--0-0-0--0-0-0--0-0-0-|1-1-1--1---1--1-1-1--1-1-1-|
  A|---------------------------|2-2-2--2---2--2-2-2--2-2-2-|
  E|---------------------------|---------------------------|
    true                                      And    then

    00:37
    F#m                         B
  e|2-2-2- 2-2-2- 2-2-2- 2---2-|2-2-2- 2-2-2- 2-2-2- 2-----|
  B|2-2-2--2-2-2--2-2-2--2---2-|4-4-4--4-4-4--4-4-4--4-----|
  G|2-2-2--2-2-2--2-2-2--2---2-|4-4-4--4-4-4--4-4-4--4-----|
  D|4-4-4--4-4-4--4-4-4--4---4-|4-4-4--4-4-4--4-4-4--4-----|
  A|4-4-4--4-4-4--4-4-4--4---4-|2-2-2--2-2-2--2-2-2--2-----|
  E|2-2-2--2-2-2--2-2-2--2---2-|---------------------------|
    while         I'm    away,                I'll   write

 
    E                           C#m
  e|4-4-4- 4-4-4- 4-4-4- 4-----|4-4-4- 4-4-4- 4-4-4- 4-----|
  B|5-5-5--5-5-5--5-5-5--5-----|5-5-5--5-5-5--5-5-5--5-----|
  G|4-4-4--4-4-4--4-4-4--4-----|6-6-6--6-6-6--6-6-6--6-----|
  D|6-6-6--6-6-6--6-6-6--6-----|6-6-6--6-6-6--6-6-6--6-----|
  A|7-7-7--7-7-7--7-7-7--7-----|4-4-4--4-4-4--4-4-4--4-----|
  E|---------------------------|---------------------------|
    home          ev'ry     day,              And    I'll


    A                           B
  e|5-5-5- 5---5- 5-5-5- 5-5-5-|7-7-7- 7-7-7- 7-7-7- 7-7---|
  B|5-5-5--5---5--5-5-5--5-5-5-|7-7-7--7-7-7--7-7-7--7-7---|
  G|6-6-6--6---6--6-6-6--6-6-6-|8-8-8--8-8-8--8-8-8--8-8---|
  D|7-7-7--7---7--7-7-7--7-7-7-|9-9-9--9-9-9--9-9-9--9-9---|
  A|7-7-7--7---7--7-7-7--7-7-7-|9-9-9--9-9-9--9-9-9--9-9---|
  E|5-5-5--5---5--5-5-5--5-5-5-|7-7-7--7-7-7--7-7-7--7-7---|
    send       all       my     loving               to  you.


    E
  e|4-4-4- 4-4-4- 4-4-4- 4-4-4-|4----- ------ ------ ------|
  B|5-5-5--5-5-5--5-5-5--5-5-5-|5--------------------------|
  G|4-4-4--4-4-4--4-4-4--4-4-4-|4--------------------------|
  D|6-6-6--6-6-6--6-6-6--6-6-6-|6--------------------------|
  A|7-7-7--7-7-7--7-7-7--7-7-7-|6--------------------------|
  E|---------------------------|---------------------------|
                                              All    my

  00:50
           C#m                         C#mmaj7  
  e|------ 4----- ---4-- ------|------ 4----- ---4-- ------|
  B|-------5---------5---------|-------5---------5---------|
  G|-------6---------6---------|-------5---------5---------|
  D|-------6---------6---------|-------6---------6---------|
  A|-------4---------4---------|-------4---------4---------|
  E|---------------------------|---------------------------|
    loving                  I          will     send to  you


           E
  e|------ 4----- ---4-- ------|------ 4----- ---4-- ------|
  B|-------5---------5---------|-------5---------5---------|
  G|-------4---------4---------|-------4---------4---------|
  D|-------6---------6---------|-------6---------6---------|
  A|-------7---------7---------|-------7---------7---------|
  E|---------------------------|---------------------------|
                                           All       my

    00:56
           C#m                         C#mmaj7
  e|------ 4----- ---4-- ------|------ 4----- ---4-- ------|
  B|-------5---------5---------|-------5---------5---------|
  G|-------6---------6---------|-------5---------5---------|
  D|-------6---------6---------|-------6---------6---------|
  A|-------4---------4---------|-------4---------4---------|
  E|---------------------------|---------------------------|
    loving,                  darling       I'll      be  true


                                SOLO  
           E
  e|------ 4----- ---4-- ------|4----- ------ ------ ------|
  B|-------5---------5---------|5--------------------------|
  G|-------4---------4---------|4--------------------------|
  D|-------6---------6---------|6--------------------------|
  A|-------7---------7---------|7--------------------------|
  E|---------------------------|---------------------------|

  e|------ ------ ------ ------|------ ------ ------ ------|
  B|---------------------------|---------------------------|
  G|---------------------------|---------------------------|
  D|---------------------------|---------------------------|
  A|---------------------------|----2----------------------|
  E|---------------------------|-------0------2------4-----|

    01:02
           A7       
  e|------ 5----- ------ ------|------ 5----- ------ 5-----|
  B|-------8-------------------|-------8-------------8-----|
  G|-------6-------------------|-------6-------------6-----|
  D|-------5-------------------|-------5-------------5-----|
  A|-------7-------------------|-------7-------------7-----|
  E|-------5-------------------|-------5-------------5-----|
  
  e|------ 5----- ------ ------|9----- ----7- ------ 5-----|
  B|-------7----------5--------|---------------------------|
  G|-------6-------------------|9----------8------6--------|
  D|------------------7--------|---------------------------|
  A|0--------------------------|---------------------------|
  E|---------------------------|---------------------------|


           E
  e|------ 0----- 0---0- 0---0-|------ 0---0- ----0- 0---0-|
  B|-------0------0---0--0---0-|-------0---0------0--0---0-|
  G|-------1------1---1--1---1-|-------1---1------1--1---1-|
  D|-------2------2---2--2---2-|-------2---2------2--2---2-|
  A|-------2------2---2--2---2-|-------2---2------2--2---2-|
  E|-------0------0---0--0---0-|-------0---0------0--0---0-|
  
  e|4----- ------ ------ ------|7----- ---5-- ------ ------|
  B|-----------5---------------|------------------9--------|
  G|4--------------------------|9---------6----------------|
  D|-------6-------------------|------------------9--------|
  A|---------------------------|---------------------------|
  E|---------------------------|---------------------------|

    01:08
           F#m                        
  e|------ 2----- ----2- ------|------ 2----- ----2- 2-----|
  B|-------2----------2--------|-------2----------2--2-----|
  G|-------2----------2--------|-------2----------2--2-----|
  D|-------4----------4--------|-------4----------4--4-----|
  A|-------4----------4--------|-------4----------4--4-----|
  E|-------2----------2--------|-------2----------2--2-----|
  
  e|------ ------ ------ ------|-9---- ------ ----9- ------|
  B|7--------------------------|-----------10--------------|
  G|-----------6---------------|11---------------11--------|
  D|7------4-------------------|-----------11--------------|
  A|---------------------------|---------------------------|
  E|---------------------------|---------------------------|


           E
  e|------ 0----- 0-0-0- 0-0-0-|0----- ------ ------ ------|
  B|-------0------0-0-0--0-0-0-|0--------------------------|
  G|-------1------1-1-1--1-1-1-|1--------------------------|
  D|-------2------2-2-2--2-2-2-|2--------------------------|
  A|-------2------2-2-2--2-2-2-|2--------------------------|
  E|-------0------0-0-0--0-0-0-|0--------------------------|

  e|0----- ------ ----0- ------|------ ------ ------ ------|
  B|------------------0------0-|---------------------------|
  G|1-------------0-1----0-1---|---------------------------|
  D|---------------------------|2--------------------------|
  A|---------------------------|---------------------------|
  E|---------------------------|---------------------------|   
                                              Close  your 
                                                         eyes
    01:14
    F#m                         B
  e|2-2-2- 2-2-2- 2-2-2- 2-2-2-|2-2-2- 2-2-2- 2-2-2- 2---2-|
  B|2-2-2--2-2-2--2-2-2--2-2-2-|4-4-4--4-4-4--4-4-4--4---4-|
  G|2-2-2--2-2-2--2-2-2--2-2-2-|4-4-4--4-4-4--4-4-4--4---4-|
  D|4-4-4--4-4-4--4-4-4--4-4-4-|4-4-4--4-4-4--4-4-4--4---4-|
  A|4-4-4--4-4-4--4-4-4--4-4-4-|2-2-2--2-2-2--2-2-2--2---2-|
  E|2-2-2--2-2-2--2-2-2--2-2-2-|---------------------------|
                  and    I'll   kiss                 tomorrow
                                    you

    E                           C#m
  e|4-4-4- 4-4-4- 4-4-4- 4-4---|4-4-4- 4-4-4- 4-4-4- 4-4---|
  B|5-5-5--5-5-5--5-5-5--5-5---|5-5-5--5-5-5--5-5-5--5-5---|
  G|4-4-4--4-4-4--4-4-4--4-4---|6-6-6--6-6-6--6-6-6--6-6---|
  D|6-6-6--6-6-6--6-6-6--6-6---|6-6-6--6-6-6--6-6-6--6-6---|
  A|7-7-7--7-7-7--7-7-7--7-7---|4-4-4--4-4-4--4-4-4--4-4---|
  E|---------------------------|---------------------------|
                         I'll   miss                 Remember
                                    you

    A                           F#m
  e|5-5-5- 5-5-5- 5-5-5- 5-5---|2-2-2- 2-2-2- 2-2-2- 2-2-2-|
  B|5-5-5--5-5-5--5-5-5--5-5---|2-2-2--2-2-2--2-2-2--2-2-2-|
  G|6-6-6--6-6-6--6-6-6--6-6---|2-2-2--2-2-2--2-2-2--2-2-2-|
  D|7-7-7--7-7-7--7-7-7--7-7---|4-4-4--4-4-4--4-4-4--4-4-4-|
  A|7-7-7--7-7-7--7-7-7--7-7---|4-4-4--4-4-4--4-4-4--4-4-4-|
  E|5-5-5--5-5-5--5-5-5--5-5---|2-2-2--2-2-2--2-2-2--2-2-2-|
                         I'll   always               be


    D                           B7
  e|2-2-2- 2-2-2- 2-2-2- 2---0-|2-2-2- 2-2-2- 2-2-2- 2-----|
  B|3-3-3--3-3-3--3-3-3--3---0-|0-0-0--0-0-0--0-0-0--0-----|
  G|2-2-2--2-2-2--2-2-2--2---0-|2-2-2--2-2-2--2-2-2--2-----|
  D|0-0-0--0-0-0--0-0-0--0---0-|1-1-1--1-1-1--1-1-1--1-----|
  A|---------------------------|2-2-2--2-2-2--2-2-2--2-----|
  E|---------------------------|---------------------------|
    true                                      And    then

    01:27
    F#m                         B
  e|2-2-2- 2-2-2- 2-2-2- 2-2---|2-2-2- 2-2-2- 2-2-2- 2-2---|
  B|2-2-2--2-2-2--2-2-2--2-2---|4-4-4--4-4-4--4-4-4--4-4---|
  G|2-2-2--2-2-2--2-2-2--2-2---|4-4-4--4-4-4--4-4-4--4-4---|
  D|4-4-4--4-4-4--4-4-4--4-4---|4-4-4--4-4-4--4-4-4--4-4---|
  A|4-4-4--4-4-4--4-4-4--4-4---|2-2-2--2-2-2--2-2-2--2-2---|
  E|2-2-2--2-2-2--2-2-2--2-2---|---------------------------|
    while         I'm    away,                I'll   write
 
    E                           C#m
  e|4-4-4- 4-4-4- 4-4-4- 4---4-|4-4-4- 4-4-4- 4-4-4- 4-----|
  B|5-5-5--5-5-5--5-5-5--5---5-|5-5-5--5-5-5--5-5-5--5-----|
  G|4-4-4--4-4-4--4-4-4--4---4-|6-6-6--6-6-6--6-6-6--6-----|
  D|6-6-6--6-6-6--6-6-6--6---6-|6-6-6--6-6-6--6-6-6--6-----|
  A|7-7-7--7-7-7--7-7-7--7---7-|4-4-4--4-4-4--4-4-4--4-----|
  E|---------------------------|---------------------------|
    home          ev'ry      day,                 And 
                                                     I'll

    A                           B
  e|5-5-5- 5-5-5- 5-5-5- 5-5---|7-7-7- 7-7-7- 7-7-7- 7-7---|
  B|5-5-5--5-5-5--5-5-5--5-5---|7-7-7--7-7-7--7-7-7--7-7---|
  G|6-6-6--6-6-6--6-6-6--6-6---|8-8-8--8-8-8--8-8-8--8-8---|
  D|7-7-7--7-7-7--7-7-7--7-7---|9-9-9--9-9-9--9-9-9--9-9---|
  A|7-7-7--7-7-7--7-7-7--7-7---|9-9-9--9-9-9--9-9-9--9-9---|
  E|5-5-5--5-5-5--5-5-5--5-5---|7-7-7--7-7-7--7-7-7--7-7---|
    send          all    my     loving               to  you.


    E
  e|4-4-4- 4-4-4- 4-4-4- 4-4-4-|4----- ------ ------ ------|
  B|5-5-5--5-5-5--5-5-5--5-5-5-|5--------------------------|
  G|4-4-4--4-4-4--4-4-4--4-4-4-|4--------------------------|
  D|6-6-6--6-6-6--6-6-6--6-6-6-|6--------------------------|
  A|7-7-7--7-7-7--7-7-7--7-7-7-|7--------------------------|
  E|---------------------------|---------------------------|
                                              All    my

    01:39 
           C#m                         C#mmaj7
  e|------ 4----- ---4-- ------|------ 4----- ---4-- ------|
  B|-------5---------5---------|-------5---------5---------|
  G|-------6---------6---------|-------5---------5---------|
  D|-------6---------6---------|-------6---------6---------|
  A|-------4---------4---------|-------4---------4---------|
  E|---------------------------|---------------------------|
    loving                   I         will   send   to  you

           E
  e|------ 4----- ---4-- ------|------ 4----- ---4-- ------|
  B|-------5---------5---------|-------5---------5---------|
  G|-------4---------4---------|-------4---------4---------|
  D|-------6---------6---------|-------6---------6---------|
  A|-------7---------7---------|-------7---------7---------|
  E|---------------------------|---------------------------|
                                           All       my

           C#m                         C#mmaj7
  e|------ 4----- ---4-- ------|------ 4----- ---4-- ------|
  B|-------5---------5---------|-------5---------5---------|
  G|-------6---------6---------|-------5---------5---------|
  D|-------6---------6---------|-------6---------6---------|
  A|-------4---------4---------|-------4---------4---------|
  E|---------------------------|---------------------------|
    loving,                  darling       I'll      be  true

           E
  e|------ 4----- ---4-- ------|----4- 4----- ---4-- ----4-|
  B|-------5---------5---------|----5--5---------5-------5-|
  G|-------4---------4---------|----4--4---------4-------4-|
  D|-------6---------6---------|----6--6---------6-------6-|
  A|-------7---------7---------|----7--7---------7-------7-|
  E|---------------------------|---------------------------|
                                           All       my
    01:52
           C#m
  e|------ 4----- 4---4- ------|4----- ----4- ------ 4-----|
  B|-------5------5---5--------|5----------5---------5-----|
  G|-------6------6---6--------|5----------5---------5-----|
  D|-------6------6---6--------|6----------6---------6-----|
  A|-------4------4---4--------|4----------4---------4-----|
  E|---------------------------|---------------------------|
    loving                                 All

           E
  e|------ 4----- ----4- ------|4----- ----4- ------ 4-----|
  B|-------5----------5--------|5----------5---------5-----|
  G|-------4----------4--------|4----------4---------4-----|
  D|-------6----------6--------|6----------6---------6-----|
  A|-------7----------7--------|7----------7---------7-----|
  E|---------------------------|---------------------------|
       my     loving            Ooooh         All my  

    01:58
           C#m
  e|------ 4----- ----4- ------|4----- ----4- ------ 4-----|
  B|-------5----------5--------|5----------5---------5-----|
  G|-------6----------6--------|5----------5---------5-----|
  D|-------6----------6--------|6----------6---------6-----|
  A|-------4----------4--------|4----------4---------4-----|
  E|---------------------------|---------------------------|
    loving                          I      will          to
                                              send
                                (.
           E                    E5
  e|------ 0----- ----0- ------|0----- ------ ------ ------|     
  B|-------0----------0--------|0--------------------------|
  G|-------1----------1--------|x--------------------------|
  D|-------2----------2--------|2--------------------------|
  A|-------2----------2--------|2--------------------------|
  E|-------0----------0--------|0--------------------------|
    you





        B  Bend
        R  Release
        /  slide up
        \  slide down
        H  hammer-on
        P  pull-off
        ~  vibrato
        +  harmonic
        x  Mute note
        . - play note like a dot in standard notation
        ^ - ties two notes together
        (. Pause



  ----------------------------------------------------------------
   
  THE BEATLES - DON'T BOTHER ME (Lennon & McCartney) From WITH THE 
                BEATLES album. Released on 22nd November 1963.

  ------------------------------------------------------------

  Tabbed by:PJVillanueva





  Since she's been gone I want no one to talk to me.
  It's not the same but I'm to blame, it's plain to see.

  So go away, leave me alone, don't bother me.

  I can't believe that she would leave me on my own.
  It's just not right when every night I'm all alone.

  I've got no time for you right now, don't bother me.

  I know I'll never be the same if I don't get her back again.
  Because I know she'll always be the only girl for me.

  But 'till she's here please don't come near, just stay away.
  I'll let you know when she's come home. Until that day,

  Don't come around, leave me alone, don't bother me.

  Solo

  I've got no time for you right now, don't bother me.

  I know I'll never be the same if I don't get her back again.
  Because I know she'll always be the only girl for me.

  But 'till she's here please don't come near, just stay away.
  I'll let you know when she's come home. Until that day,

  Don't come around, leave me alone, don't bother me.
  Don't bother me.
  Don't bother me.
  Don't bother me.
  Don't bother me.




  D                               Dadd9           Dsus4
e|2------ ------- ------- -------|------- ------- ------- -------|
B|3---------------3--------------|3------------------------------|
G|2---------------2--------------|2---------------0--------------|
D|0---------------4--------------|2---------------0--------------|
A|-------------------------------|-------------------------------|
E|-------------------------------|-------------------------------|



  Em                                         
e|0------ ------- ------- -------|------- ------- ------- -------|
B|0------------------------------|-------------------------------|
G|0------------------------------|-------------------------------|
D|2-------2-----------0----------|2------------------------------|
A|2-------2-----------2----------|2------------------------------|
E|0------------------------------|0----------------------------/-|
                                          Since  she's been  gone


  B                               A
e|------- ------- ------- -------|------- ------- ------- -------|
B|-------------------------------|-------------------------------|
G|-------------------------------|-------------------------------|
D|--------9-------7--------------|--------7-------7---5----------|
A|--------9-------7---9----------|--------7-------7---5----------|
E|7------------------------------|-------------------------------|
          I       want no     one         to      talk    to 


  G                               Em
e|------- ------- ------- -------|------- ------- ------- -------|
B|-------------------------------|-------------------------------|
G|-------------------------------|-------------------------------|
D|--------5-------5---3-------2--|---2--------0------------------|
A|--------5-------5---3-------2--|---2--------0-------2---0------|
E|-------------------------------|----------------------------2-/|
  me                                      It's    not  the   same 


  B                               A
e|------- ------- ------- -------|------- ------- ------- -------|
B|-------------------------------|-------------------------------|
G|-------------------------------|-------------------------------|
D|--------9-------9---7----------|--------7-------4---4----------|
A|--------9-------9---7----------|--------7-------5---5----------|
E|7------------------------------|-------------------------------|
          but     I'm  to    blame,       it's    plain   to 


  G
e|------- ------- ------- -------|------- ------- ------- -------|
B|-------------------------------|-------------------------------|
G|-------------------------------|-------------------------------|
D|5-------5-----------5-------5--|5------------------------------|
A|5-------5-----------5-------5--|5------------------------------|
E|3-------3-----------3-------3--|3------------------------------|
  see.                                    So      go    a.......way,


  Em                              A
e|7------ ------- ------- -------|-9----- ------- ------- -------|
B|8------------------------------|10-----------------------------|
G|9------------------------------|-9-----------------------------|
D|9------------------------------|-7-----------------------------|
A|7------------------------------|-------------------------------|
E|-------------------------------|-------------------------------|
          leave   me  a........lone       Don't   bother       me


  Em
e|7------ ------- ------- -------|7------ ------- ------- -------|
B|8------------------------------|8------------------------------|
G|9------------------------------|9------------------------------|
D|9------------------------------|9------------------------------|
A|7------------------------------|7------------------------------|
E|-------------------------------|-------------------------------|
                                          I       can't be....lieve

 
  B                               A
e|------- ------- ------- -------|------- ------- ------- -------|
B|-------------------------------|-------------------------------|
G|-------------------------------|-------------------------------|
D|--------9-------7--------------|--------7-------7---5----------|
A|--------9-------7---9----------|--------7-------7---5----------|
E|7------------------------------|-------------------------------|
         that    she would     leave      me      on      my 


  G                               Em
e|------- ------- ------- -------|------- ------- ------- -------|
B|-------------------------------|-------------------------------|
G|-------------------------------|-------------------------------|
D|--------5-------5---3-------2--|---2--------0------------------|
A|--------5-------5---3-------2--|---2--------0-------2----------|
E|-------------------------------|------------------------2---2-/|
  own                                     It's    just   not  right

 
  B                               A               D
e|------- ------- ------- -------|------- ------- ------- -------|
B|-------------------------------|-------------------------------|
G|-------------------------------|-------------------------------|
D|--------9-------7--------------|--------7-------4---4----------|
A|--------9-------7---9----------|--------7-------5---5----------|
E|7------------------------------|-------------------------------|
          when    every       night       I'm     all     a......


  G
e|------- ------- ------- -------|------- ------- ------- -------|
B|-------------------------------|-------------------------------|
G|-------------------------------|-------------------------------|
D|5-------5-------5---5-------5--|5------------------------------|
A|5-------5-------5---5-------5--|5------------------------------|
E|3-------3-------3---3-------3--|3------------------------------|
  lone.                                   I've    got  no     time 


  Em                              A
e|7------ ------- ------- -------|-9----- ------- ------- -------|
B|8------------------------------|10-----------------------------|
G|9------------------------------|-9-----------------------------|
D|9------------------------------|-7-----------------------------|
A|7------------------------------|-------------------------------|
E|-------------------------------|-------------------------------|
          for     you  right  now,        don't   bother      me.


  Em
e|7------ ------- ------- -------|7------ ------- ------- -------|
B|8------------------------------|8------------------------------|
G|9------------------------------|9------------------------------|
D|9------------------------------|9------------------------------|
A|7------------------------------|7------------------------------|
E|-------------------------------|-------------------------------|
                                          I       know    I'll 


  D                                               Dadd9   D
e|2------ ------- ------- -------|2------ ------- ------- -------|
B|3------------------------------|3---------------3-------3------|
G|2------------------------------|2---------------2-------2------|
D|0------------------------------|4---------------2-------0------|
A|-------------------------------|-------------------------------|
E|-------------------------------|-------------------------------|
  never                           be              the         same


  Em
e|0------ ------- ------- -------|0------ ------- ------- -------|
B|0------------------------------|0------------------------------|
G|0------------------------------|0------------------------------|
D|2------------------------------|2------------------------------|
A|2------------------------------|2------------------------------|
E|0------------------------------|0------------------------------|
                                          if      I       don't

 
  D                               Dadd9           D
e|2------ ------- 2------ -------|2------ ------- 2------ -------|
B|3---------------3--------------|3---------------3--------------|
G|2---------------2--------------|2---------------2--------------|
D|0---------------4--------------|2---------------0--------------|
A|-------------------------------|-------------------------------|
E|-------------------------------|-------------------------------|
  get             her             back               a...........


  Em
e|0------ ------- ------- -------|0------ ------- ------- -------|
B|0------------------------------|0------------------------------|
G|0------------------------------|0------------------------------|
D|2------------------------------|2------------------------------|
A|2------------------------------|2------------------------------|
E|0------------------------------|0------------------------------|
  gain                                    Be......cause   I 


  Bm
e|2------ ------- ------- -------|2------ ------- 2------ -------|
B|3------------------------------|3---------------3--------------|
G|4------------------------------|4---------------4--------------|
D|4------------------------------|4---------------4--------------|
A|2------------------------------|2---------------2--------------|
E|-------------------------------|-------------------------------|
  know                   she'll   al....................ways 


  Am
e|0------ ------- ------- -------|0------ ------- ------- -------|
B|1------------------------------|1------------------------------|
G|2------------------------------|2------------------------------|
D|2------------------------------|2------------------------------|
A|0------------------------------|0------------------------------|
E|-------------------------------|-------------------------------|
  be                                                      the 


  C
e|0------ ------- ------- -------|0------ ------- 0------ -------|
B|1------------------------------|1---------------1--------------|
G|0------------------------------|0---------------0--------------|
D|2------------------------------|2---------------2--------------|
A|3------------------------------|3---------------3--------------|
E|-------------------------------|-------------------------------|
  on......................ly      girl                for 


  Em
e|0------ ------- ------- -------|0------ ------- ------- -------|
B|0---------------------------0--|0------------------------------|
G|0---------------------------0--|0------------------------------|
D|2------------------------------|2------------------------------|
A|2------------------------------|2------------------------------|
E|0------------------------------|0------------------------------|
  me                                      But     'till she's   here

 
  B                               A
e|------- ------- ------- -------|------- ------- ------- -------|
B|-------------------------------|-------------------------------|
G|-------------------------------|-------------------------------|
D|--------9-------7--------------|--------7-------7---5----------|
A|--------9-------7---9----------|--------7-------7---5----------|
E|7------------------------------|-------------------------------|
          please  don't come   near,      just    stay  a.......way.


  G                               Em
e|------- ------- ------- -------|------- ------- ------- -------|
B|-------------------------------|-------------------------------|
G|-------------------------------|-------------------------------|
D|--------5-------5---3-------2--|---2--------0------------------|
A|--------5-------5---3-------2--|---2--------0-------2---0------|
E|-------------------------------|----------------------------2-/|
                                          I'll    let   you    know

 
  B                               A
e|------- ------- ------- -------|------- ------- ------- -------|
B|-------------------------------|-------------------------------|
G|-------------------------------|-------------------------------|
D|--------9-------7--------------|--------7-------4---4----------|
A|--------9-------7---9----------|--------7-------5---5----------|
E|7------------------------------|-------------------------------|
          when    she's come   home.      Un......til     that

 
  G
e|------- ------- ------- -------|------- ------- ------- -------|
B|-------------------------------|-------------------------------|
G|-------------------------------|-------------------------------|
D|--------5-----------5----------|5------------------------------|
A|--------5-----------5----------|5------------------------------|
E|--------3-----------3----------|3------------------------------|
  day,                                    Don't   come a.....round,


  Em                              A
e|7------ ------- ------- -------|-9----- ------- ------- -------|
B|8------------------------------|10-----------------------------|
G|9------------------------------|-9-----------------------------|
D|9------------------------------|-7-----------------------------|
A|7------------------------------|-------------------------------|
E|-------------------------------|-------------------------------|
         leave    me a.........lone,      don't   bother       me. 
   

                                 Solo
  Em
e|7------ ------- ------- -------|7------ ------- ------- -------|
B|8------------------------------|8------------------------------|
G|9------------------------------|9------------------------------|
D|9------------------------------|9------------------------------|
A|7------------------------------|7------------------------------|
E|-------------------------------|-------------------------------|

e|------- ------- ------- -------|------- ------- ------- -------|
B|-------------------------------|-------------------------------|
G|-------------------------------|-------------------------------|
D|-------------------------------|----------------5---7-------7-/
A|-------------------------------|--------7----------------------|
E|-------------------------------|--------0----------------------|
                               


  B                               A
e|------- ------- ------- -------|------- ------- ------- -------|
B|-------------------------------|-------------------------------|
G|-------------------------------|-------------------------------|
D|--------9-------7--------------|--------7-------7---5----------|
A|--------9-------7---9----------|--------7-------7---5----------|
E|7------------------------------|-------------------------------|

e|------- ------- ------- -------|------- ------- ------- -------|
B|-------------------------------|--------8---10--10B12---8------|
G|--------------------8----------|----9--------------------------|
D|9-------9-----7H9--------------|-------------------------------|
A|-------------------------------|-------------------------------|
E|-------------------------------|-------------------------------|



  G                               Em
e|------- ------- ------- -------|------- ------- ------- -------|
B|-------------------------------|-------------------------------|
G|-------------------------------|-------------------------------|
D|--------5-------5---3-------2--|---2--------0------------------|
A|--------5-------5---3-------2--|---2--------0-------2---0------|
E|-------------------------------|----------------------------2-/|

e|------- ------- ------- -------|------- ------- ------- -------|
B|-------------------------------|-------------------------------|
G|----9-------9---9---7H9P7------|-------------------------------|
D|-------------------------------|9-----------7-------7-------7-/|
A|-------------------------------|----------------10-------------|
E|-------------------------------|-------------------------------|



  B                               A
e|------- ------- ------- -------|------- ------- ------- -------|
B|-------------------------------|-------------------------------|
G|-------------------------------|-------------------------------|
D|--------9-------9---7----------|--------7----------------------|
A|--------9-------9---7----------|--------7----------------------|
E|7------------------------------|-------------------------------|

e|------- ------- ------- -------|------- ------- ------- -------|
B|-------------------------------|-------------------------------|
G|--------------------7-------7--|7H9-----9-------9-P-7----------|
D|9-------9---7-/-9--------------|------------------------9---7-/|
A|-------------------------------|-------------------------------|
E|-------------------------------|-------------------------------|



  G
e|------- ------- ------- -------|------- ------- ------- -------|
B|-------------------------------|-------------------------------|
G|-------------------------------|-------------------------------|
D|5-------5-------5---5----------|5------------------------------|
A|5-------5-------5---5----------|5------------------------------|
E|3-------3-------3---3----------|3------------------------------|
                                          I've    got no       time 
e|------- ------- ------- -------|------- ------- ------- -------|
B|-------------------------------|-------------------------------|
G|-------------------------------|-------------------------------|
D|9-------9-------9-P-7---5------|-------------------------------|
A|-------------------------------|7------------------------------|
E|-------------------------------|-------------------------------|
                                          


  Em                              A
e|7------ ------- ------- -------|-9----- ------- ------- -------|
B|8------------------------------|10-----------------------------|
G|9------------------------------|-9-----------------------------|
D|9------------------------------|-7-----------------------------|
A|7------------------------------|-------------------------------|
E|-------------------------------|-------------------------------|
          for you right       now,        don't   bother       me. 

 
  Em     
e|7------ ------- ------- -------|7------ ------- ------- -------|
B|8------------------------------|8------------------------------|
G|9------------------------------|9------------------------------|
D|9------------------------------|9------------------------------|
A|7------------------------------|7------------------------------|
E|-------------------------------|-------------------------------|
                                          I       know    I'll 


  D                               Dadd9           D   
e|2------ ------- 2------ -------|2------ ------- 2------ -------|
B|3---------------3--------------|3---------------3--------------|
G|2---------------2--------------|2---------------2--------------|
D|0---------------4--------------|2---------------0--------------|
A|-------------------------------|-------------------------------|
E|-------------------------------|-------------------------------|
  never                           be              the         same


  Em
e|0------ ------- ------- -------|0------ ------- ------- -------|
B|0------------------------------|0------------------------------|
G|0------------------------------|0------------------------------|
D|2------------------------------|2------------------------------|
A|2------------------------------|2------------------------------|
E|0------------------------------|0------------------------------|
                                          if      I       don't 


  D                               Dadd9           D
e|2------ ------- 2------ -------|2------ ------- 2------ -------|
B|3---------------3--------------|3---------------3--------------|
G|2---------------2--------------|2---------------2--------------|
D|0---------------4--------------|2---------------0--------------|
A|-------------------------------|-------------------------------|
E|-------------------------------|-------------------------------|
  get             her             back               a...........


  Em  
e|0------ ------- ------- -------|0------ ------- ------- -------|
B|0------------------------------|0------------------------------|
G|0------------------------------|0------------------------------|
D|2------------------------------|2------------------------------|
A|2------------------------------|2------------------------------|
E|0------------------------------|0------------------------------|
  gain                                    Be......cause   I 


  Bm      
e|2------ ------- ------- -------|2------ ------- 2------ -------|
B|3------------------------------|3---------------3--------------|
G|4------------------------------|4---------------4--------------|
D|4------------------------------|4---------------4--------------|
A|2------------------------------|2---------------2--------------|
E|-------------------------------|-------------------------------|
  know                   she'll   al....................ways 


  Am
e|0------ ------- ------- -------|------- ------- 0------ -------|
B|1------------------------------|----------------1--------------|
G|2------------------------------|----------------2--------------|
D|2------------------------------|----------------2--------------|
A|0------------------------------|----------------0--------------|
E|-------------------------------|-------------------------------|
  be                                                      the 


  C
e|0------ ------- ------- -------|0------ ------- 0------ -------|
B|1------------------------------|1---------------1--------------|
G|0------------------------------|0---------------0--------------|
D|2------------------------------|2---------------2--------------|
A|3------------------------------|3---------------3--------------|
E|-------------------------------|-------------------------------|
  on......................ly      girl                for 


  Em
e|0------ 0------ ----0-- -------|0------ ------- ------- -------|
B|0-------0-----------0----------|0------------------------------|
G|0-------0-----------0----------|0------------------------------|
D|2-------2-----------2----------|2------------------------------|
A|2-------2-----------2----------|2------------------------------|
E|0-------0-----------0----------|0------------------------------|
  me                                      But     'till she's   here

 
  B                               A
e|------- ------- ------- -------|------- ------- ------- -------|
B|-------------------------------|-------------------------------|
G|-------------------------------|-------------------------------|
D|--------9-------7--------------|--------7-------7---5----------|
A|--------9-------7---9----------|--------7-------7---5----------|
E|7------------------------------|-------------------------------|
          please  don't come   near,      just    stay  a.......way.


  G                               Em
e|------- ------- ------- -------|------- ------- ------- -------|
B|-------------------------------|-------------------------------|
G|-------------------------------|-------------------------------|
D|--------5-------5---3-------2--|---2--------0------------------|
A|--------5-------5---3-------2--|---2--------0-------2---0------|
E|-------------------------------|----------------------------2-/|
                                          I'll    let   you    know 


  B                               A
e|------- ------- ------- -------|------- ------- ------- -------|
B|-------------------------------|-------------------------------|
G|-------------------------------|-------------------------------|
D|--------9-------7--------------|--------7-----------4----------|
A|--------9-------7---9----------|--------7-----------5----------|
E|7------------------------------|-------------------------------|
          when    she's come   home.      Un......til     that 


  G
e|------- ------- ------- -------|------- ------- ------- -------|
B|-------------------------------|-------------------------------|
G|-------------------------------|-------------------------------|
D|5-------5-----------5-------5--|5------------------------------|
A|5-------5-----------5-------5--|5------------------------------|
E|3-------3-----------3-------3--|3------------------------------|
  day,                                    Don't   come a.....round,


  Em                               A
e|7------ ------- ------- -------|-9----- ------- ------- -------|
B|8------------------------------|10-----------------------------|
G|9------------------------------|-9-----------------------------|
D|9------------------------------|-7-----------------------------|
A|7------------------------------|-------------------------------|
E|-------------------------------|-------------------------------|
         leave    me a.........lone,      don't   bother       me.


  Em                               A
e|7------ ------- ------- -------|-9----- ------- ------- -------|
B|8------------------------------|10-----------------------------|
G|9------------------------------|-9-----------------------------|
D|9------------------------------|-7-----------------------------|
A|7------------------------------|-------------------------------|
E|-------------------------------|-------------------------------|
                                          don't   bother       me.


  Em                          A                               Em
e|7------ ------- ------- ----9--|------- ------- ------- ----7--|
B|8--------------------------10--|----------------------------8--|
G|9---------------------------9--|----------------------------9--|
D|9---------------------------7--|----------------------------9--|
A|7------------------------------|----------------------------7--|
E|-------------------------------|-------------------------------|
                                          don't   bother       me.


                               A                              Em
e|------- ------- ------- -----9-|------- ------- ------- ----7--|
B|----------------------------10-|----------------------------8--|
G|-----------------------------9-|----------------------------9--|
D|-----------------------------7-|----------------------------9--|
A|-------------------------------|----------------------------7--|
E|-------------------------------|-------------------------------|
                                          don't   bother       me.


                               A                              Em
e|------- ------- ------- -----9-|------- ------- ------- ----7--|
B|----------------------------10-|----------------------------8--|
G|-----------------------------9-|----------------------------9--|
D|-----------------------------7-|----------------------------9--|
A|-------------------------------|----------------------------7--|
E|-------------------------------|-------------------------------|
                                          don't   bother       me.
  .............................Fade..............................





        B  Bend
        R  Release
        /  slide up
        \  slide down
        H  hammer-on
        P  pull-off
        ~  vibrato
        +  harmonic
        x  Mute note
        . - play note like a dot in standard notation
        ^ - ties two notes together
        (. Pause



    ---------------------------------------------------------

    BEATLES - LITTLE CHILD (Lennon & McCartney) From WITH THE
              BEATLES album. Released on 22nd November 1963.
   
    ---------------------------------------------------------

    Tabbed by:PJVillanueva





    In spite of being maybe too light, compared to their tougher 
    aim and look a couple of years before it's easy to fancy the 
    group playing something similar in Hamburg, though there are 
    not any guitars on this recording. Just bass, drums, piano, 
    harmonica and vocals. John's thoughtless wit performing his
    harmonica part is very touching. Paul plays also rhythm on 
    piano, as he started doing in the old days, when his Rosetti
    Solid 7 broke and before switching to bass.





    Little child, little child,
    Little child, won't you dance with me?
    I'm so sad and lonely,
    Baby take a chance with me.

    If you want someone
    To make you feel so fine,
    Then we'll have some fun
    When you're mine, all mine,
    So come, come on, come on.

    Little child, little child,
    Little child, won't you dance with me?
    I'm so sad and lonely,
    Baby take a chance with me.

                SOLO

    When you're by my side,
    You're the only one,
    Don't you run and hide,
    Just come on, come on,
    So come on, come on, come on.

    Little child, little child,
    Little child, won't you dance with me?
    I'm so sad and lonely,
    Baby take a chance with me Oh yeah
    Baby take a chance with me Oh yeah
    Baby take a chance with me Oh yeah ...





    HARMONICA INTRO
    E                               A                       
  e|7------ ------- ------- -------|5------ ------- ------- -------|
  B|9------------------------------|5------------------------------|
  G|9------------------------------|6------------------------------|
  D|-------------------------------|-------------------------------|
  A|-------------------------------|-------------------------------|
  E|-------------------------------|-------------------------------| ...


   
            E7          E9                              E7
  e|------- ------- ------- -------|------- ------- ------- -------|
  B|--------9-----------7-------7--|7-------7-----------9----------|
  G|--------7-----------7-------7--|7-------7-----------7----------|
  D|--------9-----------6-------6--|6-------6-----------9----------|
  A|-------------------------------|-------------------------------|
  E|-------------------------------|-------------------------------|
                                                            Little
                                                                child

    00:06

  e|------- ------- ------- -------|------- ------- ------- -------|
  B|--------9-----------7----------|--------9-----------7----------|
  G|--------7-----------7----------|--------7-----------7----------|
  D|--------9-----------6----------|--------9-----------6----------|
  A|-------------------------------|-------------------------------|
  E|-------------------------------|-------------------------------|
                            little                          little
                                child                           child

    E                       A               E       D   E
  e|------- ------- ------- 5---5--|------- 4------ 2---4-- -------|
  B|9-------9---------------5---5--|--------5-------3---5----------|
  G|9---9---9---9-----------6---6--|--------4-------2---4----------|
  D|9-------9----------------------|-------------------------------|
  A|-------------------------------|-------------------------------|
  E|-------------------------------|-------------------------------|
            won't   dance   with                                I'm
                you             me

            B                               A
  e|------- ------- ------- -------|------- ------- ------- -------|
  B|--------4-----------4----------|--------2---2-------2---2------|
  G|--------4-----------4----------|--------2---2-------2---2------|
  D|--------4-----------4----------|--------2---2-------2---2------|
  A|-------------------------------|-------------------------------|
  E|-------------------------------|-------------------------------|
            so      sad     and     lonely
 

            F#7                                                 E7
  e|------- 0---0-- ----0-- 0------|------- ------- ------- -------|
  B|--------2---2-------2---2------|----------------------------9--|
  G|--------3---3-------3---3------|----------------7---9-------7--|
  D|--------4---4-------4---4------|--------9-------------------9--|
  A|-------------------------------|----------------5---7----------|
  E|-------------------------------|--------7----------------------|
    Baby    take    chance  with                            Little
                a               me                              child

    00:19
                    E9                      E7      E9
  e|------- ------- ------- -------|------- ------- ------- -------|
  B|----9---9-------7---7----------|--------9-------7---7----------|
  G|----7---7-------7---7----------|--------7-------7---7----------|
  D|----9---9-------6---6----------|--------9-------6---6----------|
  A|-------------------------------|-------------------------------|
  E|-------------------------------|-------------------------------|
                            little                          little
                                child                           child
   
        E7                  A               E       D   E       B
  e|------- ------- ------- 5---5--|------- 4------ 2---4-- -------|
  B|----9---9---------------5---5--|--------5-------3---5-------4--|
  G|----7---7---------------6---6--|--------4-------2---4-------4--|
  D|----9---9----------------------|----------------------------4--|
  A|-------------------------------|-------------------------------|
  E|-------------------------------|-------------------------------|
            won't   dance   with                                I'm
                you             me

                                            A
  e|------- ------- ------- -------|------- ------- ------- -------|
  B|--------4-----------4----------|--------2---2-------2-------2--|
  G|--------4-----------4----------|--------2---2-------2-------2--|
  D|--------4-----------4----------|--------2---2-------2-------2--|
  A|-------------------------------|-------------------------------|
  E|-------------------------------|-------------------------------|
            so      sad     and     lonely
 

            F#7             B               E
  e|------- 0---0-- ------- -------|------- 4------ ------- -------|
  B|--------2---2-----------4------|--------5----------------------|
  G|--------3---3-----------4------|--------4-------4---4----------|
  D|--------4---4-----------4------|----------------2---2----------|
  A|-------------------------------|-------------------------------|
  E|-------------------------------|-------------------------------|
    Baby    take    chance  with                            If  you
                a               me   

    00:32             
            E7                              B7
  e|------- ------- ------- -------|------- ------- ------- -------|
  B|--------3-----------3----------|--------7----------------------|
  G|--------1-----------1----------|--------8-------7---9----------|
  D|--------2-----------2----------|--------7-------------------9--|
  A|-------------------------------|----------------5---7-------7--|
  E|-------------------------------|--------7-------------------0--|
    want    someone     to  make    feel        fine        Then
                                you     so                      we'll

            E7                                   
  e|------- ------- ------- -------|------- ------- ------- -------|
  B|--------3-----------3----------|3-----------3---3-------3------|
  G|--------1-----------1----------|1-----------1---1-------1------|
  D|--------2-----------2----------|2-----------2---2-------2------|
  A|-------------------------------|-------------------------------|
  E|-------------------------------|-------------------------------|
    have    some    fun     when    mine        mine        so  come
                                you're  all

            F#          F#7                 B
  e|------- ------- ------- -------|------- ------- ----7-- ----7--|
  B|--------2-----------5-------5--|--------------------7-------7--|
  G|--------3---3-------3-------3--|--------------------8-------8--|
  D|--------4-----------4-------4--|--------9----------------------|
  A|-------------------------------|-------------------------------|
  E|-------------------------------|--------7-------7--------------|
    on      come                come                        Little
                on                  on                          child

    00:41                                                      

  e|------- ------- ------- -------|------- ------- ------- -------|
  B|--------9-----------7----------|--------9-------9---9----------|
  G|--------7-----------7----------|--------7-------7---9----------|
  D|--------9-----------6----------|--------9-------9---9----------|
  A|-------------------------------|-------------------------------|
  E|-------------------------------|-------------------------------|
                            little                          little
                                child                           child
   

  e|------- ------- ------- 5------|------- 4---4-- 2---4-- -------|
  B|----9---9---9-----------5------|--------5---5---3---5-------4--|
  G|----7---7---7-----------6------|--------4---4---2---4-------4--|
  D|----9---9---9------------------|----------------------------4--|
  A|-------------------------------|-------------------------------|
  E|-------------------------------|-------------------------------|
            won't   dance   with                                I'm
                you             me


  e|------- ------- ------- -------|------- ------- ------- -------|
  B|--------4---4-------4---4------|--------2---2-------2---2---2--|
  G|--------4---4-------4---4------|--------2---2-------2---2---2--|
  D|--------4---4-------4---4------|--------2---2-------2---2---2--|
  A|-------------------------------|-------------------------------|
  E|-------------------------------|-------------------------------|
            so      sad     and     lonely
 


  e|------- ------- ------- -------|------- ------- ------- -------|
  B|--------5-------4-------4---4--|----3---3---3-------3---3------|
  G|--------3-------4-------2---2--|----1---1---1-------1---1------|
  D|--------4-------4-------4---4--|----2---2---2-------2---2------|
  A|-------------------------------|-------------------------------|
  E|-------------------------------|-------------------------------|
    Baby    take    chance  with                            If  you
                a               me 
  

    HARMONICA SOLO
    00:54
    E7
  e|------- ------- ------- -------|------- ----0-- ------- -------|
  B|3-------3-----------3---3------|3-------3---3-------3----------|
  G|1-------1-----------1---1------|1-------1---1-------1----------|
  D|2-------2-----------2---2------|2-------2-----------2----------|
  A|-------------------------------|-------------------------------|
  E|-------------------------------|-------------------------------|


                                                E9          E7
  e|------- ------- 0------ -------|------- ----2-- ------- -------|
  B|--------3-------3---3----------|3-----------3-----------3------|
  G|--------1-------1---1----------|1-----------1-----------1------|
  D|--------2-----------2----------|2-----------2-----------2------|
  A|-------------------------------|-------------------------------|
  E|-------------------------------|-------------------------------|


    A
  e|------- ------- ------- -------|------- ------- ------- -------|
  B|2-------2-----------2---2------|2-------2---------------2------|
  G|2-------2-----------2---2------|2-------2---------------2------|
  D|2-------2-----------2---2------|2-------2---------------2------|
  A|-------------------------------|-------------------------------|
  E|-------------------------------|-------------------------------|


    E7 
  e|------- ------- ------- -------|------- ------- ------- -------|
  B|3-------3-------3---3-------3--|3-------3-------3---3----------|
  G|1-------1-------1---1-------1--|1-------1-------1---1----------|
  D|2-------2-------2---2-------2--|2-------2-------2---2----------|
  A|-------------------------------|-------------------------------|
  E|-------------------------------|-------------------------------|


    B                                       A
  e|2------ 2------ 2---2-- ----2--|------- 0------ 0---0-- -------|
  B|4-------4-------4---4-------4--|--------2-------2---2----------|
  G|4-------4-------4---4-------4--|--------2-------2---2----------|
  D|-------------------------------|-------------------------------|
  A|-------------------------------|-------------------------------|
  E|-------------------------------|-------------------------------|


    F#                              B
  e|------- ------- ------- -------|------- ------- ------- -------|
  B|2---2---2-------2---2---2---2--|4------------------------------|
  G|3---3---3-------3---3---3---3--|4-------4-------7---9----------|
  D|4---4---4-------4---4---4---4--|4---------------------------9--|
  A|-------------------------------|--------2-------5---7-------7--|
  E|-------------------------------|-------------------------------|
                                                            When
                                                                you're

    01:13                                                            

  e|------- ------- ------- -------|2---2-- ----2-- 2---2-- -------|
  B|--------3-----------3----------|4---4-------4---4---4-------3--|
  G|--------1-----------1----------|4---4-------4---4---4-------1--|
  D|--------2-----------2----------|----------------------------2--|
  A|-------------------------------|-------------------------------|
  E|-------------------------------|-------------------------------|
    by      my      side    you're  only        one         Don't
                                the                             you


  e|------- ------- ------- -------|------- ------- ------- -------|
  B|--------3-----------3----------|3-----------3---3---3---3------|
  G|--------1-----------1----------|1-----------1---1---1---1------|
  D|--------2-----------2----------|2-----------2---2---2---2------|
  A|-------------------------------|-------------------------------|
  E|-------------------------------|-------------------------------|
    run     and     hide    just    on      come                come
                                come            on          So 


  e|------- ------- ------- -------|------- 5------ ----5-- -------|
  B|--------2---2-------5-------5--|--------4-----------4----------|
  G|--------3---3-------3-------3--|--------4-----------4----------|
  D|--------4---4-------4-------4--|-------------------------------|
  A|-------------------------------|-------------------------------|
  E|-------------------------------|-------------------------------|
    on      come                come                        Little
                on                  on                          child

    01:22                                                            

  e|----4-- 4------ ----4-- ----4--|----4-- 4---4-- 2---4-- -------|
  B|----5---5-----------5-------5--|----5---5---5---3---5----------|
  G|----4---4-----------4-------4--|----4---4---4---2---4----------|
  D|-------------------------------|-------------------------------|
  A|-------------------------------|-------------------------------|
  E|-------------------------------|-------------------------------|
                            little                          little
                                child                           child
  

  e|4---4-- 4------ ------- 5------|------- 7------ 5---7-- -------| 
  B|5---5---5---------------5------|--------9-------7---9----------|
  G|4---4---4---------------6------|--------9-------7---0----------|
  D|-------------------------------|-------------------------------|
  A|-------------------------------|-------------------------------|
  E|-------------------------------|-------------------------------|
            won't   dance   with                                I'm
                you             me


  e|------- 2------ 2---2-- 2------|------- 0---0-- ----0-- 0---0--| 
  B|--------4-------4---4---4------|--------2---2-------2---2---2--|
  G|--------4-------4---4---4------|--------2---2-------2---2---2--|
  D|-------------------------------|-------------------------------|
  A|-------------------------------|-------------------------------|
  E|-------------------------------|-------------------------------|
            so      sad     and     lonely
 


  e|------- ------- ------- -------|------- ------- ------- -------| 
  B|----5---5---5-------4---4---4--|----3---3---3---5---5---5------|
  G|----3---3---3-------2---2---2--|----4---4---4---6---6---6------|
  D|----4---4---4-------4---4---4--|----6---6---6---6---6---6------|
  A|-------------------------------|-------------------------------|
  E|-------------------------------|-------------------------------|
    Baby    take    chance  with        Oh      yeah                    
                a               me 

    01:35

  e|------- ------- ------- -------|------- ------- ------- -------|
  B|----5---5-------4-------4---4--|----5---5---5---5-------5------|
  G|----3---3-------2-------2---2--|----4---4---4---6-------6------|
  D|----4---4-------4-------4---4--|----6---6---6---6-------6------|
  A|-------------------------------|-------------------------------|
  E|-------------------------------|-------------------------------|
    Baby    take    chance  with        Oh      yeah                    
                a               me 


  e|------- ------- ------- -------|------- ------- ------- -------|
  B|----5---5---5-----------4---4--|5---5---5---5---5-------5------|
  G|----3---3---3-----------2---2--|4---4---4---4---6-------6------|
  D|----4---4---4-----------4---4--|6---6---6---6---6-------6------|
  A|-------------------------------|-------------------------------|
  E|-------------------------------|-------------------------------|
    Baby    take    chance  with        Oh      yeah                    
                a               me 
    ........................... Fade out ..........................


  e|------- ------- ------- -------|------- ------- ------- -------|
  B|----5---5---5---4-------4---4--|-------------------------------|
  G|----3---3---3---2-------2---2--|-------------------------------|
  D|----4---4---4---4-------4---4--|-------------------------------|
  A|-------------------------------|-------------------------------|
  E|-------------------------------|-------------------------------|

    ...............................
  



        B  Bend
        R  Release
        /  Slide up
        \  Slide down
        H  Hammer-on
        P  Pull-off
        ~  Vibrato
        +  Harmonic
        x  Mute note
        .  Play note like a dot in standard notation
        ^  Ties two notes together
        (. Pause



  ----------------------------------------------------------------

  THE BEATLES - TILL THERE WAS YOU. From WITH THE BEATLES album.
                Released on November, 22nd, 1963. (This is a cover
                version from Meredith Wilson's number included in 
                1957's Broadway Show "The Music Man".)

  ----------------------------------------------------------------

  Tabbed by:PJVillanueva






  Intro

  F     F#dim  Gm  C9
  F     F#dim  Gm  C9 



             F            F#dim
  There were bells on a hill

        Gm               Bbm
  But I never heard them ringing

       F        Am    G#m   Gm   C9
  No I never heard them at all

       F             Gm  C9
  Till there was you



             F              F#dim
  There were birds in the sky

        Gm             Bbm
  But I never saw them winging

       F      Am     G#m   Gm  C9
  No I never saw them at all

       F            F9
  Till there was you   


                     

                  Bb   Bbm               F
  Then there was music     and wonderful roses

         D9         Gm   D#5            G7         C  9     C#5
  They   tell me in sweet      fragrant meadows of dawn and dew

        F               F#dim 
  There was love all around

        Gm             Bbm
  But I never heard it singing

    F        Am   G#m    Gm  C9
  No I never heard it at all

       F            Gm C9
  Till there was you




  SOLO:  F    F#dim  Gm  Bbm  F   Am G#m Gm  C9   F   F9




  Then there was

  Bb     Bbm              F
  music     and wonderful roses

         D7/9        Gm   D#5           G7         C  C9    C7/#5 
  They   tell me in sweet      fragrant meadows of dawn and you




            F          F#dim 
  There was love all around

        Gm             Bbm
  But I never heard it singing

    F           Am   G#m   Gm  C9
  No I never heard it at all

       F
  Till there was you

   C   E  C               F     C#   F     Fmaj9  
   Till ....... there was you ............





   Intro
                                     
  
  e|------- ------- ------- -------|------- ------- ------- -------|
  B|----1--------------------------|3------------------------------|
  G|2----------2-------------------|---3------------5--------------|
  D|----------------4--------------|-----------5-------------------|
  A|-------------------------------|-------------------------------|
  E|-------------------------------|-------------------------------|
    ........................... 2 times ...........................



   Solo


  e|------- ------- ------- -------|---1--- ------- ------- -------|
  B|-------------------------------|1-------3---1------------------|
  G|------------------------2---3--|----------------3---2---0------|
  D|-------------------------------|----------------------------3--|
  A|-------------------------------|-------------------------------|
  E|-------------------------------|-------------------------------|



  e|------- ------- ------- -------|------3 ----3-- ----3-- ----3--|
  B|--------1---4---3---1----------|------3-----3-------3-------3--|
  G|----2-------------------3---2--|3-----3-5---3---5---3---5---3--|
  D|4------------------------------|-------------------------------|
  A|-------------------------------|-------------------------------|
  E|-------------------------------|-------------------------------|



  e|------6 8---6-- 8---6-- 8---6--|------- ------- ----8-- ----7--|
  B|------6-6---6---6---6---6---6--|--------10---------10-------9--|
  G|6-----6-8---6---8---6---8---6--|------10------------9-------8--|
  D|-------------------------------|----10----------10------9------|
  A|-------------------------------|-8----------8------------------|
  E|-------------------------------|-------------------------------|



  e|6------ ------- 5------ -------|------- ------- ------- -------|
  B|8---------------2--------------|6---6--------------------------|
  G|7---------------3--------------5----------5--------------------|
  D|8---------------2-------------7-----------------7--------------|
  A|----------------3------------8-|-------------------------------|
  E|-------------------------------|----------------------------5--|



  e|------- ------- ------- -------|
  B|--------------------------6----|
  G|---------------------5---------|
  D|----------4--/--7--------------|
  A|3----6-------------------------|
  E|-------------------------------|




     Ending - First guitar 

   1                               2
  e|0------ 0---0-- 0------ 0---0--|0------ 0---0-- ----0-- 0------|
  B|1------1----1---0------0----0--|1------1----1-------0---0------|
  G|0-----0-----0---1-----1-----1--|0-----0-----0-------1---1------|
  D|2----2------2---2----2------2--|2----2------2-------2---2------|
  A|3---3-------3---2---2-------2--|3---3-------3-------3---3------|
  E|-------------------------------|-------------------------------|


   3                               4
  e|1------ ---1--- 1------ 1------|4------ ---4--- ------- 4------|
  B|1----------1----1-------1------|6----------6------------6------|
  G|2----------2----2-------2------|6----------6------------6------|
  D|3----------3----3-------3------|6----------6------------6------|
  A|3----------3----3-------3------|4----------4------------4------|
  E|1------------------------------|-------------------------------|

                                                 (.
   5                               6
  e|1------ ---1--- ------- 1------|1------ ------- 3------ -------|
  B|1----------1------------1------|1---------------5--------------|
  G|2----------2------------2------|2---------------5--------------|
  D|3----------3------------3------|3---------------3--------------|
  A|3----------3------------3------|3---------------3--------------|
  E|1----------1------------1------|1------------------------------|



     Ending - Second guitar

    3                               4
  e|------- ------- 10----8----10--|-9----- 11----9 ---11-- -9-----|
  B|----------------10---10----10--|-9-------9----9-----9----9-----|
  G|----------------10---10----10--|10------10---10----10---10-----|
  D|-------------------------------|-------------------------------|
  A|-------------------------------|-------------------------------|
  E|-------------------------------|-------------------------------|

                                                   (.
    5                               6
  e|------- ------- ------- -------|------- ------- 3------ -------|
  B|-------------------------------|----------------5--------------|
  G|-------------------------------|----------------5--------------|
  D|-------------------------------|----------------3--------------|
  A|-------------------------------|----------------3--------------|
  E|-------------------------------|-------------------------------|




        Chords:     
            
        F         133211
        F#dim     2x121x    xx1212
        Gm        355333
        C9        x3233x
        Bbm       688666
        Am        577555
        G#m       466444
        F9        xx3243
        Bb        688766
        D9        x5455x
        D#5       x5433x
        G7        353433
        C         332010
        C9        x32013
        C#5       x3211x
        C7#5      xx6554
        Fmaj9     x8798x




        B  Bend
        R  Release
        /  slide up
        \  slide down
        H  hammer-on
        P  pull-off
        ~  vibrato
        +  harmonic
        x  Mute note
        . - play note like a dot in standard notation
        ^ - ties two notes together
        (. Pause

       

    ---------------------------------------------------------------

    BEATLES - PLEASE MISTER POSTMAN (Holland) From WITH THE BEATLES 
              album. Released on November 22nd 1963.

    ---------------------------------------------------------------

    Tabbed by:PJVillanueva





    I prefer to credit the song as it was on the original recording
    , but If you buy the CD right now you'll see that it's credited
    to "Dobbin, Garrett, Garman & Brianbert". Allan W. Pollack also
    comments on his Notes that Mark Lewisohn provides even another 
    writing team from which Holland was supposedly part. I wish I 
    could give an answer to that, but I haven't any reference about 
    any of those two last creditings. 
    There's no solo here and George uses just fifth chords, mostly 
    on the lower strings, to support John's strumming. That's why I 
    decided to tab John's guitar alone, as heard on the record. 

    



   (Wait!)
    Oh yes, wait a minute Mister Postman 
   (Wait!) 
    Wait Mister Postman 
   (Mister postman look and see) Oh yeah 
   (You got a letter in the bag for me) 
    Please please Mister Postman 
   (I've been waiting a long long time) Oh yeah         
   (Since I heard from that gal of mine) 

    There must be some word today 
    From my girlfriend so far away 
    Please Mister Postman look and see 
    If there's a letter, a letter for me 

    I've been standing here waiting Mister Postman 
    So patiently for just a card 
    or just a letter 
    Saying she's returning home to me
 
    Please Mister Postman 
   (Mister Postman look and see) Oh yeah 
   (If there's a letter in the bag for me)
    Please please Mister Postman 
   (I've been waiting a long long time) Oh yeah 
   (Since I heard from that gal of mine) 

    So many days you passed me by 
    See the tear standing in my eyes 
    You didn't stop to make me feel better 
    By leaving me a card or a letter 

    Mister Postman - Mister Postman look and see 
    Is there a letter - Oh yeah for me - in the bag for me 
    I've - been waiting a long long - such a long long time 
    Since I heard from that girlfriend of mine 

    
    You gotta wait a minute wait a minute oh yeah
   (Wait a minute wait a minute Mister Postman)

    Wait a minute wait a minute oh yeah
   (Wait a minute wait a minute (Mister Postman)
    
    You gotta wait a minute wait a minute Oh yeah
   (Wait a minute wait a minute Mister Postman)

    Check and see one more time for me 
 
    You gotta wait a minute wait a minute oh yeah
   (Wait a minute wait a minute Mister Postman)

    Wait a minute wait a minute oh yeah
   (Wait a minute wait a minute Mister Postman)

    Mister Postman Oh yeah
   (Wait a minute wait a minute Mister Postman)

    Deliver the letter, the sooner the bet 

    You gotta wait a minute wait a minute Oh yeah
   (Wait a minute wait a minute Mister Postman)

    Wait a minute wait a minute - Oooooohh - Oh yeah you gotta
   (Wait a minute wait a minute Mister Postman)

    Wait a minute wait a minute Mister postman
    Wait a minute wait a minute Aaaaaaaaaaahh  ....



                                                                x
                           
  e|------- ------- ------- -------|------- ------- ------- -------|
  B|-------------------------------|-------------------------------|
  G|-------------------------------|-------------------------------|
  D|-------------------------------|-------------------------------|
  A|-------------------------------|-------------------------------|
  E|-------------------------------|-------------------------------|


    INTRO

    X       x   x           x       X       x   x           x   X

  e|------- ------- ------- -------|------- ------- ------- -------|
  B|-------------------------------|-------------------------------|
  G|-------------------------------|-------------------------------|
  D|-------------------------------|-------------------------------|
  A|-------------------------------|-------------------------------|
  E|-------------------------------|-------------------------------|
            Oh      yes     wait    minute  Mister  Postman
                                a
    Wait!

    X       x   x           x       X       x   x       x x x x x

  e|------- ------- ------- -------|------- ------- ------- -------|
  B|-------------------------------|-------------------------------|
  G|-------------------------------|-------------------------------|
  D|-------------------------------|-------------------------------|
  A|-------------------------------|-------------------------------|
  E|-------------------------------|-------------------------------|
            Wait ....                       Mister  Postman 
    Wait!

    00:08   
    A
  e|0------ 0------ 0------ 0------|0------ 0---0-- 0------ 0------|
  B|2-------2-------2-------2------|2-------2---2---2-------2------|
  G|2-------2-------2-------2------|2-------2---2---2-------2------|
  D|2-------2-------2-------2------|2-------2---2---2-------2------|
  A|0-------0-------0-------0------|0-------0---0---0-------0------|
  E|-------------------------------|-------------------------------|
                                                        Oh     
            Mister  Postman         look        see
                                        and

    F#m
  e|2------ 2---2-- 2------ 2------|2------ 2---2-- ----2-- 2------|
  B|2-------2---2---2-------2------|2-------2---2-------2---2------|
  G|2-------2---2---2-------2------|2-------2---2-------2---2------|
  D|4-------4---4---4-------4------|4-------4---4-------4---4------|
  A|4-------4---4---4-------4------|4-------4---4-------4---4------|
  E|2-------2---2---2-------2------|2-------2---2-------2---2------|
        yeah                                    Please          please
        You've  a   letter  in  the bag     for me
            got 

    D                                                           E
  e|2------ 2---2-- 2---2-- 2------|2---2-- 2---2-- ----2-- 2---0--|
  B|3-------3---3---3---3---3------|3---3---3---3-------3---3---0--|
  G|2-------2---2---2---2---2------|2---2---2---2-------2---2---1--|
  D|0-------0---0---0---0---0------|0---0---0---0-------0---0---2--|
  A|-------------------------------|----------------------------2--|
  E|-------------------------------|----------------------------0--|
            Mister  Postman ....                        Oh
        I've        waiting     a   long        time
            been                        long

    
  e|0------ 0---0-- 0---0-- 0---0--|0---0-- 0---0-- ----0-- 0---0--|
  B|0-------0---0---0---0---0---0--|0---0---0---0-------0---0---0--|
  G|1-------1---1---1---1---1---1--|1---1---1---1-------1---1---1--|
  D|2-------2---2---2---2---2---2--|2---2---2---2-------2---2---2--|
  A|2-------2---2---2---2---2---2--|2---2---2---2-------2---2---2--|
  E|0-------0---0---0---0---0---0--|0---0---0---0-------0---0---0--|
    yeah
            Since   heard   from    gal of      mine
                I               that

    00:24

  e|0------ 0---0-- 0---0-- 0---0--|0------ 0------ 0---0-- 0------|
  B|2-------2---2---2---2---2---2--|2-------2-------2---2---2------|
  G|2-------2---2---2---2---2---2--|2-------2-------2---2---2------|
  D|2-------2---2---2---2---2---2--|2-------2-------2---2---2------|
  A|0-------0---0---0---0---0---0--|0-------0-------0---0---0------|
  E|-------------------------------|-------------------------------|
            There       be      some        today 
                must                word
    Oooooooooooooooooooooooooooooooooooooooooooooooooooohhh


  e|2---2-- 2------ 2---2-- 2------|2------ 2---2-- 2---2-- 2---0--|
  B|2---2---2-------2---2---2------|2-------2---2---2---2---2---0--|
  G|2---2---2-------2---2---2------|2-------2---2---2---2---2---0--|
  D|4---4---4-------4---4---4------|4-------4---4---4---4---4------|
  A|4---4---4-------4---4---4------|4-------4---4---4---4---4------|
  E|2---2---2-------2---2---2------|2-------2---2---2---2---2------|
            from    girlfriend      so  far away
                my
    Oooooooooooooooooooooooooooooooooooooooooooooooooooohhh


  e|2---2-- 2------ 2---2-- 2------|2------ 2---2-- ------- ----0--|
  B|3---3---3-------3---3---3------|3-------3---3-------3-------0--|
  G|2---2---2-------2---2---2------|2-------2---2-------2---2---0--|
  D|0---0---0-------0---0---0------|0-------0---0-------0---0------|
  A|-------------------------------|-------------------------------|
  E|-------------------------------|-------------------------------|
        Please      Postman         look        see
            Mister                      and
    Oooooooooooooooooooooooooooooooooooooooooooooooooooohhh


  e|0------ 0------ 0---0-- 0---0--|0---0-- 0---0-- 0---0-- 0---0--|
  B|0-------0-------0---0---0---0--|0---0---0---0---0---0---0---0--|
  G|1-------1-------1---1---1---1--|1---1---1---1---1---1---1---1--|
  D|2-------2-------2---2---2---2--|2---2---2---2---2---2---2---2--|
  A|2-------2-------2---2---2---2--|2---2---2---2---2---2---2---2--|
  E|0-------0-------0---0---0---0--|0---0---0---0---0---0---0---0--|
        If  there's letter      a   letter  for me
                a
    Oooooooooooooooooooooooooooooooooooooooooooooooooooohhh


    00:39                                                           

  e|0------ 0---0-- 0---0-- 0---0--|0------ 0------ 0---0-- 0------| 
  B|2-------2---2---2---2---2---2--|2-------2-------2---2---2------|
  G|2-------2---2---2---2---2---2--|2-------2-------2---2---2------|
  D|2-------2---2---2---2---2---2--|2-------2-------2---2---2------|
  A|0-------0---0---0---0---0---0--|0-------0-------0---0---0------|
  E|-------------------------------|-------------------------------|
        I've        standing        waiting Mister  Postman 
            been            here
    Oooooooooooooooooooooooooooooooooooooooooooooooooooohhh


  e|2---2-- 2------ 2---2-- 2------|2------ 2---2-- 2---2-- 2---0--|
  B|2---2---2-------2---2---2------|2-------2---2---2---2---2---0--|
  G|2---2---2-------2---2---2------|2-------2---2---2---2---2---0--|
  D|4---4---4-------4---4---4------|4-------4---4---4---4---4------|
  A|4---4---4-------4---4---4------|4-------4---4---4---4---4------|
  E|2---2---2-------2---2---2------|2-------2---2---2---2---2------|
        so ....                     patiently
    Oooooooooooooooooooooooooooooooooooooooooooooooooooohhh


  e|2---2-- 2------ 2---2-- 2---2--|2------ 2---2-- 2---2-- 2---0--|
  B|3---3---3-------3---3---3---3--|3-------3---3---3---3---3---0--|
  G|2---2---2-------2---2---2---2--|2-------2---2---2---2---2---0--|
  D|0---0---0-------0---0---0---0--|0-------0---0---0---0---0------|
  A|-------------------------------|-------------------------------|
  E|-------------------------------|-------------------------------|
        for just    card                or  just    letter
                a                               a
    Oooooooooooooooooooooooooooooooooooooooooooooooooooohhh


  e|0---0-- 0---0-- 0---0-- 0---0--|0---0-- 0---0-- 0---0-- 0------|
  B|0---0---0---0---0---0---0---0--|0---0---0---0---0---0---0------|
  G|1---1---1---1---1---1---1---1--|1---1---1---1---1---1---1------|
  D|2---2---2---2---2---2---2---2--|2---2---2---2---2---2---2------|
  A|2---2---2---2---2---2---2---2--|2---2---2---2---2---2---2------|
  E|0---0---0---0---0---0---0---0--|0---0---0---0---0---0---0------|
            saying  she's           home    to me       Please
                        returning                           Mister
    Oooooooooooooooooooooooooooooooooooooooooooooooooooohhh

    00:55                                                            

  e|0------ 0---0-- 0------ 0---0--|0------ 0---0-- 0---0-- 0------|
  B|2-------2---2---2-------2---2--|2-------2---2---2---2---2------|
  G|2-------2---2---2-------2---2--|2-------2---2---2---2---2------|
  D|2-------2---2---2-------2---2--|2-------2---2---2---2---2------|
  A|0-------0---0---0-------0---0--|0-------0---0---0---0---0------|
  E|-------------------------------|-------------------------------|
    Postman                                             Oh     
            Mister  Postman         look        see
                                        and


  e|2------ 2---2-- 2------ 2---2--|2------ 2---2-- 2---2-- 2------|
  B|2-------2---2---2-------2---2--|2-------2---2---2---2---2------|
  G|2-------2---2---2-------2---2--|2-------2---2---2---2---2---0--|
  D|4-------4---4---4-------4---4--|4-------4---4---4---4---4---0--|
  A|4-------4---4---4-------4---4--|4-------4---4---4---4---4------|
  E|2-------2---2---2-------2---2--|2-------2---2---2---2---2------|
        yeah                                    Please          please
        You've  a   letter  in  your         for me
            got                     bag


  e|2------ 2---2-- 2---2-- 2---2--|2------ 2---2-- 2---2-- 2------|
  B|3-------3---3---3---3---3---3--|3-------3---3---3---3---3---0--|
  G|2-------2---2---2---2---2---2--|2-------2---2---2---2---2---0--|
  D|0-------0---0---0---0---0---0--|0-------0---0---0---0---0------|
  A|-------------------------------|-------------------------------|
  E|-------------------------------|-------------------------------|
            Mister  Postman ....                        Oh
        I've        waiting     a   long        time
            been                        long


  e|0---0-- 0---0-- 0---0-- 0---0--|0---0-- 0---0-- ----0-- 0---0--|
  B|0---0---0---0---0---0---0---0--|0---0---0---0-------0---0---0--|
  G|1---1---1---1---1---1---1---1--|1---1---1---1-------1---1---1--|
  D|2---2---2---2---2---2---2---2--|2---2---2---2-------2---2---2--|
  A|2---2---2---2---2---2---2---2--|2---2---2---2-------2---2---2--|
  E|0---0---0---0---0---0---0---0--|0---0---0---0-------0---0---0--|
    yeah
            Since   heard   from    gal of      mine
                I               that

    01:10                                                         

  e|0------ 0------ 0---0-- 0---0--|0---0-- 0------ 0---0-- 0------|
  B|2-------2-------2---2---2---2--|2---2---2-------2---2---2------|
  G|2-------2-------2---2---2---2--|2---2---2-------2---2---2------|
  D|2-------2-------2---2---2---2--|2---2---2-------2---2---2------|
  A|0-------0-------0---0---0---0--|0---0---0-------0---0---0------|
  E|-------------------------------|-------------------------------|
        So  many    days        you passed  me  by 
    Oooooooooooooooooooooooooooooooooooooooooooooooooooohhh


  e|2------ 2---2-- 2---2-- 2---2--|2------ 2---2-- ----2-- 2---0--|
  B|2-------2---2---2---2---2---2--|2-------2---2-------2---2---0--|
  G|2-------2---2---2---2---2---2--|2-------2---2-------2---2---0--|
  D|4-------4---4---4---4---4---4--|4-------4---4-------4---4------|
  A|4-------4---4---4---4---4---4--|4-------4---4-------4---4------|
  E|2-------2---2---2---2---2---2--|2-------2---2-------2---2------|
            See the tear    standing    my      eyes
                                    in
    Oooooooooooooooooooooooooooooooooooooooooooooooooooohhh


  e|2---2-- 2------ 2---2-- 2------|2---2-- 2------ 2---2-- 2------|
  B|3---3---3-------3---3---3------|3---3---3-------3---3---3---0--|
  G|2---2---2-------2---2---2------|2---2---2-------2---2---2---0--|
  D|0---0---0-------0---0---0------|0---0---0-------0---0---0------|
  A|-------------------------------|-------------------------------|
  E|-------------------------------|-------------------------------|
        You didn't  stop        to  make    feel    better
                                        me
    Oooooooooooooooooooooooooooooooooooooooooooooooooooohhh


  e|0---0-- 0---0-- 0---0-- 0---0--|0---0-- 0---0-- 0------ 0------|
  B|0---0---0---0---0---0---0---0--|0---0---0---0---0-------0------|
  G|1---1---1---1---1---1---1---1--|1---1---1---1---1-------1------|
  D|2---2---2---2---2---2---2---2--|2---2---2---2---2-------2------|
  A|2---2---2---2---2---2---2---2--|2---2---2---2---2-------2------|
  E|0---0---0---0---0---0---0---0--|0---0---0---0---0-------0------|
        By  leaving me          a   card    a   letter      Mister
                                        or
    Oooooooooooooooooooooooooooooooooooooooooooooooooooohhh

    01:26                                                        

  e|0------ 0---0-- 0---0-- 0------|0------ 0---0-- 0---0-- -------|
  B|2-------2---2---2---2---2------|2-------2---2---2---2----------|
  G|2-------2---2---2---2---2------|2-------2---2---2---2----------|
  D|2-------2---2---2---2---2------|2-------2---2---2---2----------|
  A|0-------0---0---0---0---0------|0-------0---0---0---0----------|
  E|-------------------------------|-------------------------------|
    Postman                         look             
                                        and     see
            Mister  Postman         look        see
                                        and

  e|2------ 2---2-- 2---2-- 2---2--|2------ 2------ 2---2-- 2---0--|
  B|2-------2---2---2---2---2---2--|2-------2-------2---2---2---0--|
  G|2-------2---2---2---2---2---2--|2-------2-------2---2---2---0--|
  D|4-------4---4---4---4---4---4--|4-------4-------4---4---4------|
  A|4-------4---4---4---4---4---4--|4-------4-------4---4---4------|
  E|2-------2---2---2---2---2---2--|2-------2-------2---2---2------|
        Is  there       Oh          yeah    for me           
                a ...
        Is  there   letter  in  the bag     for me
                a

  e|2------ 2---2-- 2---2-- 2------|2---2-- 2------ 2---2-- ----0--|
  B|3-------3---3---3---3---3------|3---3---3-------3---3-------0--|
  G|2-------2---2---2---2---2------|2---2---2-------2---2-------1--|
  D|0-------0---0---0---0---0------|0---0---0-------0---0-------2--|
  A|-------------------------------|----------------------------2--|
  E|-------------------------------|----------------------------0--|
        I've        waiting     for such    long
            been                        a       time   
        I've        waiting     a   long        time
            been                        long

  e|0---0-- 0------ 0---0-- ----0--|0---0-- 0---0-- 0---0-- 0------|
  B|0---0---0-------0---0-------0--|0---0---0---0---0---0---0------|
  G|1---1---1-------1---1-------1--|1---1---1---1---1---1---1------|
  D|2---2---2-------2---2-------2--|2---2---2---2---2---2---2------|
  A|2---2---2-------2---2-------2--|2---2---2---2---2---2---2------|
  E|0---0---0-------0---0-------0--|0---0---0---0---0---0---0------|
            Since   heard   from    girlfriend  mine   You've
                I               that        of              gotta


    01:42                                                          

  e|0---0-- 0---0-- 0---0-- 0------|0---0-- 0---0-- 0---0-- 0---0--|
  B|2---2---2---2---2---2---2------|2---2---2---2---2---2---2---2--|
  G|2---2---2---2---2---2---2------|2---2---2---2---2---2---2---2--|
  D|2---2---2---2---2---2---2------|2---2---2---2---2---2---2---2--|
  A|0---0---0---0---0---0---0------|0---0---0---0---0---0---0---0--|
  E|-------------------------------|-------------------------------|
    wait    minute  wait    minute      Oh      yeah
        a               a
    wait    minute  wait    minute          Mister  Postman
        a               a

  e|2---2-- 2---2-- 2---2-- 2---2--|----2-- 2---2-- 2---2-- 2---0--|
  B|2---2---2---2---2---2---2---2--|----2---2---2---2---2---2---0--|
  G|2---2---2---2---2---2---2---2--|----2---2---2---2---2---2---0--|
  D|4---4---4---4---4---4---4---4--|----4---4---4---4---4---4------|
  A|4---4---4---4---4---4---4---4--|----4---4---4---4---4---4------|
  E|2---2---2---2---2---2---2---2--|----2---2---2---2---2---2------|
    wait    minute  wait    minute      Oh      yeah    You gotta
        a               a
    wait    minute  wait    minute          Mister  Postman
        a               a

  e|2------ 2---2-- 2------ 2---2--|2---2-- 2---2-- 2---2-- 2---0--|
  B|3-------3---3---3-------3---3--|3---3---3---3---3---3---3---0--|
  G|2-------2---2---2-------2---2--|2---2---2---2---2---2---2---1--|
  D|0-------0---0---0-------0---0--|0---0---0---0---0---0---0---2--|
  A|-------------------------------|----------------------------2--|
  E|-------------------------------|----------------------------0--|
    wait    minute  wait    minute      Oh      yeah        
        a               a
    wait    minute  wait    minute          Mister  Postman
        a               a

     X      x   x           x       X       x   x           x   x

  e|0------ ------- ------- -------|------- ------- ------- -------|
  B|0------------------------------|-------------------------------|
  G|1------------------------------|-------------------------------|
  D|2------------------------------|-------------------------------|
  A|2------------------------------|-------------------------------|
  E|0------------------------------|-------------------------------|
    Check       see         one more        for me      You gotta
        and                         time

    01:58                                                          

  e|0------ 0---0-- 0---0-- 0---0--|0---0-- 0---0-- 0---0-- 0---0--|
  B|2-------2---2---2---2---2---2--|2---2---2---2---2---2---2---0--|
  G|2-------2---2---2---2---2---2--|2---2---2---2---2---2---2---0--|
  D|2-------2---2---2---2---2---2--|2---2---2---2---2---2---2------|
  A|0-------0---0---0---0---0---0--|0---0---0---0---0---0---0------|
  E|-------------------------------|-------------------------------|
    wait    minute  wait    minute      Oh      yeah
        a               a
    wait    minute  wait    minute          Mister  Postman
        a               a

  e|2---2-- 2------ 2---2-- 2---2--|----2-- 2---2-- 2---2-- 2---0--|
  B|2---2---2-------2---2---2---2--|----2---2---2---2---2---2---0--|
  G|2---2---2-------2---2---2---2--|----2---2---2---2---2---2---0--|
  D|4---4---4-------4---4---4---4--|----4---4---4---4---4---4------|
  A|4---4---4-------4---4---4---4--|----4---4---4---4---4---4------|
  E|2---2---2-------2---2---2---2--|----2---2---2---2---2---2------|
    wait    minute  wait    minute      Oh      yeah        Mister
        a               a
    wait    minute  wait    minute          Mister  Postman
        a               a

  e|2------ 2------ 2------ 2---2--|2---2-- 2---2-- 2---2-- 2---0--|
  B|3-------3-------3-------3---3--|3---3---3---3---3---3---3---0--|
  G|2-------2-------2-------2---2--|2---2---2---2---2---2---2---1--|
  D|0-------0-------0-------0---0--|0---0---0---0---0---0---0---2--|
  A|-------------------------------|----------------------------2--|
  E|-------------------------------|----------------------------0--|
    Postman                             Oh      yeah            Deliver
    wait    minute  wait    minute          Mister  Postman
        a               a

    X       x   x           x       X       x   x           x

  e|0------ ------- ------- -------|------- ------- ------- -------|
  B|0------------------------------|-------------------------------|
  G|1------------------------------|-------------------------------|
  D|2------------------------------|-------------------------------|
  A|2------------------------------|-------------------------------|
  E|0------------------------------|-------------------------------|
            the letter          the sooner  the bet     You gotta


    02:13                                                           
    A6  A ....              
  e|2---0-- 2---0-- 0---0-- 2---0--|0---0-- 2---0-- 0---0-- 0---0--|
  B|2---2---2---2---2---2---2---2--|2---2---2---2---2---2---2---0--|
  G|2---2---2---2---2---2---2---2--|2---2---2---2---2---2---2---0--|
  D|2---2---2---2---2---2---2---2--|2---2---2---2---2---2---2------|
  A|0---0---0---0---0---0---0---0--|0---0---0---0---0---0---0------|
  E|-------------------------------|-------------------------------|
    wait    minute  wait    minute      Oh      yeah
        a               a
    wait    minute  wait    minute          Mister  Postman
        a               a

    F#m F#m7 ....
  e|2---2-- 2---2-- 2---2-- 2------|2---2-- 2---2-- ----2-- 2---0--|  
  B|2---3---2---2---2---3---2------|2---2---2---2-------2---2---0--|
  G|2---2---2---2---2---2---2------|2---2---2---2-------2---2---0--|
  D|4---4---4---4---4---4---4------|4---4---4---4-------4---4------|
  A|4---4---4---4---4---4---4------|4---4---4---4-------4---4------|
  E|2---2---2---2---2---2---2------|2---2---2---2-------2---2------|
    wait    minute  wait    minute      Oh      yeah    you gotta
        a               a               Ooooooooohh
    wait    minute  wait    minute          Mister  Postman
        a               a
   
    D           D5 ....                                         E
  e|2------ 2------ 2---2-- 2------|----2-- 2------ 2---2-- 2---0--|
  B|3-------3---3---3---3---3---3--|----3---3---3---3---3---3---0--|
  G|2-------2---2---2---2---2---2--|----2---2---2---2---2---2---1--|
  D|0-------0---0---0---0---0---0--|----0---0---0---0---0---0---2--|
  A|-------------------------------|----------------------------2--|
  E|-------------------------------|----------------------------0--|
    wait    minuta  wait    minute      Oh      yeah        gotta 
        a               a
    wait    minute  wait    minute          Mister  Postman
        a               a

                                    Eadd9   E ....
  e|0------ 0---0-- 0---0-- 0---0--|2------ 0------ 0---0-- 2------|
  B|0-------0---0---0---0---0---0--|0-------0-------0---0---0------|
  G|1-------1---1---1---1---1---1--|1-------1-------1---1---1------|
  D|2-------2---2---2---2---2---2--|2-------2-------2---2---2------|
  A|2-------2---2---2---2---2---2--|2-------2-------2---2---2------|
  E|0-------0---0---0---0---0---0--|0-------0-------0---0---0------|
    Wait    minute  wait    minute      Aaaaaaaaaaaahhh You gotta
        a               a
    ..........................  Fade out ..........................


    A6          A ....
  e|2------ 2---0-- 2---0-- 2---0--|2------ ------- ------- -------|
  B|2-------2---2---2---2---2---2--|2------------------------------|
  G|2-------2---2---2---2---2---2--|2------------------------------|
  D|2-------2---2---2---2---2---2--|2------------------------------|
  A|0-------0---0---0---0---0---0--|0------------------------------|
  E|-------------------------------|-------------------------------|
    wait    wait    minute  wait    minute
                a               a     
    wait    wait    minute          minute
                a               a         
    .......................................





        B  Bend
        R  Release
        /  Slide up
        \  Slide down
        H  Hammer-on
        P  Pull-off
        ~  Vibrato
        +  Harmonic
        x  Mute note
        .  Play note like a dot in standard notation
        ^  Ties two notes together
        (. Pause



  ---------------------------------------------------------------

  THE BEATLES - ROLL OVER BEETHOVEN (Berry) From WITH THE BEATLES
                album. Released on 22nd November 1963.

  ---------------------------------------------------------------

  Tabbed by:PJVillanueva

                                     



  Gonna write a little letter
  Gonna mail it to my local D.J.
  It's a rockin' little record
  I want my jockey to play
  Roll over Beethoven
  Gotta hear it again today

  You know my temperature's risin'
  And the jukebox blows a fuse
  My hearts beatin' rhythm
  And my soul keeps singing the blues
  Roll over Beethoven
  And tell Tchaikovsky the news

  I got a rockin' pneumonia
  I need a shot of rhythm and blues
  I think I got it off the writer
  Sittin' down by the rhythm review
  Roll over Beethoven
  We're rockin' in two by two

  Well if you feel you like it
  Go get your lover and reel and rock it
  Roll it over and move on up
  Just jump around and reel and rock it
  Roll it over
  Roll over Beethoven
  A rockin' in two by two , oh

         SOLO

  Well early in the mornin'
  I'm a givin' you the warnin'
  Don't you step on my blue suede shoes
  Hey little little
  I'll play my fiddle
  Ain't got nothing to lose
  Roll over Beethoven
  And tell Tchaikovsky the news

  You know she winks like a glow worm
  Dance like a spinnin' top
  She's got a crazy partner
  Oughta see 'em reel an rock
  Long as she got a dime
  The music will never stop
  Roll over Beethoven
  Roll over Beethoven
  Roll over Beethoven
  Roll over Beethoven
  Roll over Beethoven
  Dig to this rhythm and blues




  
e|------ ------ ------ ------|------ ------ ------ ------|
B|---------------------------|---------------------10-12-|
G|---------------------------|---------------/-11--------|
D|---------------------------|---------------------------|
A|---------------------------|---------------------------|
E|---------------------------|---------------------------|



  
e/10-10- 10/10- 10-10-/10-10-|13P10- ------ ------ ------|
B/10-10--10/10--10-10-/10-10-|-------13P10---------------|
G|---------------------------|------------13\12----10----|
D|---------------------------|-----------------------/12-|
A|---------------------------|-----------------------/12-|
E|---------------------------|---------------------------|


                                               x   x x x
  
e|------ ------ ------ ------|------ ------ ------ ------|
B|---------------------------|---------------------10-10-|
G|---------/11-----11--11-11-/11-----11/11-----12B-------|
D|-------12/12-----12--12-12-/12-----12/12---------------|
A|-------12/12-----12--12-12-/12-----12/12---------------|
E|---------------------------|---------------------------|


  00:06
  G5     G6     G7     G6 G5  ...
e|------ ------ ------ ------|------ ------ ------ ------|
B|---------------------------|---------------------------|
G|--------------10-----------|--------------10-----------|
D|12-12--14-----12-----14-12-|---12--14-----12-----14----|
A|10-10--10-----10-----10-10-|---10--10-----10-----10----|
E|---------------------------|---------------------------|  
  
e|------ ------ ------ ------|------ ------ ------ ------|
B|---10---------------10--10-|-------10-10---------10-10-|
G|12B----12-10--10----10--10-|-------10-10---------10-10-|
D|-----------------12--------|---12------------12--------|
A|---------------------------|---------------------------|
E|---------------------------|---------------------------|



  D5     D6     D7     D6 D5  ...
e|------ ------ ------ ------|------ ------ ------ ------|
B|---------------------------|---------------------------|
G|---------------------------|---------------------------|
D|--------------10-----------|--------------10-----------|
A|12-12--14-----12-----14-12-|12-12--14-----12-----14----|
E|10-10--10-----10-----10-10-|10-10--10-----10-----10----|  
  
e|------ ------ ------ ------|10---- ---12- 13---- ---10-|
B|-------10-10---------10-12-|10--------12--13--------10-|
G|-------10-10---------10-12-|---------------------------|
D|---12------------12--------|---------------------------|
A|---------------------------|---------------------------|
E|---------------------------|---------------------------|



  G5     G6     G7        A5         A6     A7     A6 D5
e|------ ------ ------ ------|------ ------ ------ ------|
B|---------------------------|---------------------------|
G|--------------10-----------|--------------12-----------|
D|12-12--14-----12--------14-|---14--16-----14-----16----|
A|10-10--10-----10--------12-|---12--12-----12-----12-12-|
E|---------------------------|------------------------10-|  
 
e|---12- 13-12- 10---- ------|------ ------ ------ ------|
B|---12--13-12--10-----10----|---------------------------|
G|-----------------12--10----|---------------------------|
D|------------------------12-|-------12--------10-----12-|
A|---------------------------|---------------------------|
E|---------------------------|---------------------------|



         D6     D7     D6 D5  ...
e|------ ------ ------ ------|------ ------ ------ ------|
B|---------------------------|---------------------------|
G|---------------------------|---------------------------|
D|--------------10-----------|--------------10-----------|
A|---12--14-----12-----14-12-|---12--14-12--12-----14-12-|
E|---10--10-----10-----10-10-|---10--10-10--10-----10-10-|  
 
e|------ ------ ------ ------|------ ------ ------ ------|
B|---------------------------|---------------------------|
G|---------------------------|---------------------------|
D|---------------------------|---------------------------|
A|---12----------------------|---------------------------|
E|---------------------------|---------------------------|
                                                   Gonna

  00:18
                              G5     G6     G7     G6 G5
e|------ ------ ------ ------|------ ------ ------ ------|
B|---------------------------|---------------------------|
G|---------------------------|--------------10-----------|
D|--------------10-----------|12-12--14-----12-----14-12-|
A|12-12--14-----12-----14----|10-10--10---- 10-----10-10-|
E|10-10--10-----10-----10----|---------------------------|  
  write  little letter gonna  mail   to my  local  D  J
     a                           it


  D5     D6     D7     D6 D5  ...
e|------ ------ ------ ------|------ ------ ------ ------|
B|---------------------------|---------------------------|
G|---------------------------|---------------------------|
D|--------------10-----------|--------------10-----------|
A|12-12--14-----12-----14-12-|12-12--14-----12-----12----|
E|10-10--10-----10-----10-10-|10-10--10-----10-----10----|  
                                                   It's 
                                                      a

  G5     G6     G7     G6 G5  ...     
e|------ ------ ------ ------|------ ------ ------ ------|
B|---------------------------|---------------------------|
G|--------------10-----------|--------------10-----------|
D|12-12--14-----12-----14-12-|---12--14-----12-----14----|
A|10-10--10-----10-----10-10-|---10--10-----10-----10----|
E|---------------------------|---------------------------|  
  rockin'       record I  want   my     jockey     to play
         little


  D5     D6     D7     D6 D5  ...
e|------ ------ ------ ------|------ ------ ------ ------|
B|---------------------------|---------------------------|
G|---------------------------|---------------------------|
D|--------------10-----------|--------------10-----------|
A|12-12--14-----12-----14-12-|12-12--14-----12-----12----|
E|10-10--10-----10-----10-10-|10-10--10-----10-----10----| 
                                                   Roll 
                                                      over

  G5     G6     G7     G6     A5     A6     A7     A6
e|------ ------ ------ ------|------ ------ ------ ------|
B|---------------------------|---------------------------|
G|--------------10-----------|--------------12-----------|
D|12-12--14-----12-----14----|14-14--16-----14-----16----|
A|10-10--10-----10-----12----|12-12--12-----12-----12----|
E|---------------------------|---------------------------|  
         Beethoven     gotta  hear   again         today
                                 it


     D5  D6     D7     D6 D5  ...
e|------ ------ ------ ------|------ ------ ------ ------|
B|---------------------------|---------------------------|
G|---------------------------|---------------------------|
D|--------------10-----------|--------------10-----------|
A|---12--14-12--12-----14-12-|---12--14-----12-----14-12-|
E|---10--10-10--10-----10-10-|---10--10-----10-----10-10-|
                                               You know 
                                                      my
  00:35
                              G5     G6     G7     G6
e|------ ------ ------ ------|------ ------ ------ ------|
B|---------------------------|---------------------------|
G|---------------------------|--------------10-----------|
D|--------------10-----------|12-12--14-----12-----14----|
A|12-12--14-----12-----14----|10-10--10---- 10-----10----|
E|10-10--10-----10-----10----|---------------------------|    
  temperature's        and    jukebox       blows  a  fuse
            risin'        the


  D5     D6     D7     D6 D5  ...
e|------ ------ ------ ------|------ ------ ------ ------|
B|---------------------------|---------------------------|
G|---------------------------|---------------------------|
D|--------------10-----------|--------------10-----------|
A|12-12--14-----12-----14-12-|12-12--14-12--12-----14----|
E|10-10--10-----10-----10-10-|10-10--10-10--10-----10----| 
                                                      My 


  G5     G6     G7     G6 G5  ...
e|------ ------ ------ ------|------ ------ ------ ------|
B|---------------------------|---------------------------|
G|--------------10-----------|--------------10-----------|
D|12-12--14-----12-----14-12-|---12--14-----12-----14----|
A|10-10--10-----10-----10-10-|---10--10-----10-----10----|
E|---------------------------|---------------------------|      
 heart's beatin'       and    soul   keeps  singing   blues
                 rhythm   my                       the


  D5     D6     D7     D6 D5  ...
e|------ ------ ------ ------|------ ------ ------ ------|
B|---------------------------|---------------------------|
G|---------------------------|---------------------------|
D|--------------10-----------|--------------10-----------|
A|12-12--14-----12-----14-12-|12-12--14-----12-----14-12-|
E|10-10--10-----10-----10-10-|10-10--10-----10-----10-10-| 
                                                    Roll
                                                      over

  G5     G6     G7     A5            A6     A7     A6     
e|------ ------ ------ ------|------ ------ ------ ------|
B|---------------------------|---------------------------|
G|--------------10-----------|--------------12-----------|
D|12-12--14-----12-----14----|14-----16-----14-----16----|
A|10-10--10-----10-----12----|12-----12-----12-----12----|
E|---------------------------|---------------------------|  
         Beethoven        and tell   Tchaikovsky   the 
                                                      news

     D5  D6     D7     D6 D5  ...
e|------ ------ ------ ------|------ ------ ------ ------|
B|---------------------------|---------------------------|
G|---------------------------|---------------------------|
D|--------------10-----------|---------------------------|
A|---12--14-----12-----14-12-|---12--14-12--12-12--14-12-|
E|---10--10-----10-----10-10-|---10--10-10--10-10--10-10-| 
                                               I   got  
                                                      a
  00:53
                              G5     G6     G7     G6 D5
e|------ ------ ------ ------|------ ------ ------ ------|
B|---------------------------|---------------------------|
G|---------------------------|--------------10-----------|
D|--------------10-----------|12-----14-----12-----14----|
A|12-12--14-----12-----14----|10-----10---- 10-----10-12-|
E|10-10--10-----10-----10----|------------------------10-|  
  rockin'                 I   need   shot   rhythm and 
         pneumonia               a      of            blues


         D6     D7     D6 D5  ...
e|------ ------ ------ ------|------ ------ ------ ------|
B|---------------------------|---------------------------|
G|---------------------------|---------------------------|
D|--------------10-----------|--------------10-----------|
A|---12--14-----12-----14-12-|---12--14-----12-----14-12-|
E|---10--10-----10-----10-10-|---10--10-----10-----10-10-| 
                          Wooooh               I   think 
                                                      I 

  G5     G6     G7     G6 G5  ...
e|------ ------ ------ ------|------ ------ ------ ------|
B|---------------------------|---------------------------|
G|--------------10-----------|--------------10-----------|
D|12-12--14-----12-----14-12-|---12--14-----12-----14----|
A|10-10--10-----10-----10-10-|---10--10-----10-----10----|
E|---------------------------|---------------------------|  
  got    off    writer sittin'       by the rhythm review
     it     the               down


  D5     D6     D7     D6 D5  ...
e|------ ------ ------ ------|------ ------ ------ ------|
B|---------------------------|---------------------------|
G|---------------------------|---------------------------|
D|--------------10-----------|--------------10-----------|
A|12-12--14-12--12-----14-12-|---12--14-12--12-----12----|
E|10-10--10-10--10-----10-10-|---10--10-10--10-----10----| 
                                                   Roll 
                                                      over

  G5     G6     G7     G6     A5     A6     A7     A6 D5
e|------ ------ ------ ------|------ ------ ------ ------|
B|---------------------------|---------------------------|
G|--------------10-----------|--------------12-----------|
D|12-12--14-----12-----14----|14-14--16-----14-----16----|
A|10-10--10-----10-----10----|12-12--12-----12-----12----|
E|---------------------------|---------------------------|  
         Beethoven       We're       in two    by     two
                              rocking

         D6 D5 ...
e|------ ------ ------ ------|------ ------ ------ ------|
B|---------------------------|---------------------------|
G|---------------------------|---------------------------|
D|---------------------------|---------------------------|
A|---12--14-12--12-12--14-12-|12-12--14-12--12-12--14-12-|
E|---10--10-10--10-10--10-10-|10-10--10-10--10-10--10-10-| 
                                               Well   you
                                                   if
  01:11
                                            D7 D5  D6 D5
e|------ ------ ------ ------|------ ------ ------ ------|
B|---------------------------|---------------------------|
G|---------------------------|---------------------------|
D|---------------------------|--------------10-----------|
A|---12--14-12--12-12--14-12-|12-12--14-12--12-12--14-12-|
E|---10--10-10--10-10--10-10-|10-10--10-10--10-10--10-10-| 
  feel   you    like   it        Go  get    lover  and
                                        your 
e|------ ------ ------ ------|------ ------ ------ ------|
B|---------------------------|---------------------------|
G|11-------------------------|-------11------------------|
D|10-------------------------|-------10------------------|
A|12-------------------------|-------12------------------|
E|10-------------------------|-------10------------------|


 
  ...                                       D7 D5  D6 D5
e|------ ------ ------ ------|------ ------ ------ ------|
B|---------------------------|---------------------------|
G|---------------------------|---------------------------|
D|---------------------------|--------------10-----------|
A|---12--14-12--12-12--14-12-|12-12--14-12--12-12--14-12-|
E|---10--10-10--10-10--10-10-|10-10--10-10--10-10--10-10-| 
  reel   and    rock   it            Roll   over   and 
                                        it
e|------ ------ ------ ------|------ ------ ------ ------|
B|---------------------------|---------------------------|
G|11------------11-----------|--------------11-----------|
D|10------------10-----------|--------------10-----------|
A|12------------12-----------|--------------12-----------|
E|10------------10-----------|--------------10-----------|



  G5     G6     G7     G6 G5  ...
e|------ ------ ------ ------|------ ------ ------ ------|
B|---------------------------|---------------------------|
G|--------------10-----------|---------------------------|
D|12-12--14-----12-----14-12-|---12--14-12-----12--14----|
A|10-10--10-----10-----10-10-|---10--10-10-----10--10----|
E|---------------------------|---------------------------|  
  move   on     up     Just          jump          and 
                                       around


  D5     D6 D5 ...                          D7 D5  D6 D5
e|------ ------ ------ ------|------ ------ ------ ------|
B|---------------------------|---------------------------|
G|---------------------------|---------------------------|
D|---------------------------|--------------10-----------|
A|12-12--14-12--12-12--14-12-|12-12--14-12--12-12--14-12-|
E|10-10--10-10--10-10--10-10-|10-10--10-10--10-10--10-10-| 
  reel   and    rock   it             Roll  over   Roll 
                                        it            over
e|------ ------ ------ ------|------ ------ ------ ------|
B|---------------------------|---------------------------|
G|11------------11-----------|--------------11-----------|
D|10------------10-----------|--------------10-----------|
A|12------------12-----------|--------------12-----------|
E|10------------10-----------|--------------10-----------|


    
  G5     G6     G7     A5            A6     A7     A6                
e|------ ------ ------ ------|------ ------ ------ ------|
B|---------------------------|---------------------------|
G|--------------10-----------|--------------12-----------|
D|12-12--14-----12-----14----|14-----16-----14-----16----|
A|10-10--10-----10-----12----|12-----12-----12-----12----|
E|---------------------------|---------------------------| 
         Beethoven        A   rockin'   two    by     two 
                                     in


  D5     D6     D5 ...
e|------ ------ ------ ------|------ ------ ------ ------|
B|---------------------------|---------------------------|
G|---------------------------|---------------------------|
D|---------------------------|---------------------------|
A|12-----14-----12-12--14-12-|---12--14-12-----12--14----|
E|10-----10-----10-10--10-10-|---10--10-10-----10--10----|


  01:29
  SOLO                                                       
  D                           G
e|------ ------ ------ ------|------ ------ ------ ------|
B|---------------------------|---------------------------|
G|---------------------------|--------------10-----------|
D|--------------10-----------|12-12--14-----12-----14----|
A|12-12--14-----12-----14----|10-10--10---- 10-----10----|
E|10-10--10-----10-----10----|---------------------------|  

e|10-13- 10---- ------ ---10-|------ ------ ------ ------|
B|10--------13--10--------10-|-------10--------10--------|
G|11--------------/14--------12B14------12B14-----/14----|
D|---------------------------|---------------------------|
A|---------------------------|---------------------------|
E|---------------------------|---------------------------| 
  


  D
e|------ ------ ------ ------|------ ------ ------ ------|
B|---------------------------|---------------------------|
G|---------------------------|---------------------------|
D|--------------10-----------|--------------10-----------|
A|12-12--14-----12-----14-12-|12-12--14-12--12-----14----|
E|10-10--10-----10-----10-10-|10-10--10-10--10-----10----| 

e|------ ------ ------ ------|------ ------ ------ ------|
B|10--------10---------10----|---------------------10-10-|
G|--/14--------/14--------14\|12-10-----------12/14------/
D|---------------------------|---------------------------|
A|---------------------------|---------------------------|
E|---------------------------|---------------------------|



  G
e|------ ------ ------ ------|------ ------ ------ ------|
B|---------------------------|---------------------------|
G|--------------10-----------|--------------10-----------|
D|12-12--14-----12-----14-12-|---12--14-----12-----14----|
A|10-10--10-----10-----10-10-|---10--10-----10-----10----|
E|---------------------------|---------------------------|  
  
e|------ ------ ------ ------|------ ------ ------ ------|
B|---10----------------10-10-|-------10-10---------10-10-|
G|14-----12-10--10-----10-10-|-------10-10---------10-10-|
D|-----------------12--------|---12------------12--------|
A|---------------------------|---------------------------|
E|---------------------------|---------------------------|



  D
e|------ ------ ------ ------|------ ------ ------ ------|
B|---------------------------|---------------------------|
G|---------------------------|---------------------------|
D|--------------10-----------|--------------10-----------|
A|12-12--14-----12-----14-12-|12-12--14-----12-----14-12-|
E|10-10--10-----10-----10-10-|10-10--10-----10-----10-10-| 

e|------ ------ ------ ------|------ ------ ------ ------|
B|-------10-10---------10-10-|-------10-10---------10-12-|
G|-------10-10---------10-10-|-------10-10---------10-12-|
D|---12------------12--------|---12------------12--------|
A|---------------------------|---------------------------|
E|---------------------------|---------------------------| 
   


  G                           A
e|------ ------ ------ ------|------ ------ ------ ------|
B|---------------------------|---------------------------|
G|--------------10-----------|--------------12-----------|
D|12-12--14-----12-----14----|14-14--16-----14-----16----|
A|10-10--10-----10-----10----|12-12--12-----12-----12----|
E|---------------------------|---------------------------|  
  
e|------ ------ 13---- ------|10-13- ---10- ------ ------|
B|12B13--12-----12-----------|12--------10---------------|
G|12B13--12-----12-----------|12------------12-13--12-10-|
D|---------------------------|---------------------------|
A|---------------------------|---------------------------|
E|---------------------------|---------------------------|


  
  D
e|------ ------ ------ ------|------ ------ ------ ------|
B|---------------------------|---------------------------|
G|---------------------------|---------------------------|
D|--------------10-----------|--------------10-----------|
A|12-12--14-----12-----14-12-|12-12--14-----12-----14-12-|
E|10-10--10-----10-----10-10-|10-10--10-----10-----10-10-| 
                                                      Early    
e|------ ------ ------ ------|------ ------ ------ ------|
B|---------------------------|---------------------------|
G|---------------------------|-------11------------------|
D|12-----12-----10-10--9--12-|----------12--10-----------|
A|---------------------------|---12----------------------|
E|---------------------------|---------------------------|


                                                      
  01:47
                              G
e|------ ------ ------ ------|------ ------ ------ ------|
B|---------------------------|---------------------------|
G|---------------------------|--------------10-----------|
D|--------------10-----------|12-----14-----12-----14-12-|
A|12-12--14-----12-----14----|10-----10---- 10-----10-10-|
E|10-10--10-----10-----10----|---------------------------|  
         in the mornin'I'm    givin' you    warnin'   you
                          a             the        Don't

  D
e|------ ------ ------ ------|------ ------ ------ ------|
B|---------------------------|---------------------------|
G|---------------------------|---------------------------|
D|--------------10-----------|--------------10-----------|
A|12-12--14-----12-----14-12-|---12--14-12--12-----12----|
E|10-10--10-----10-----10-10-|---10--10-10--10-----10----|  
  step   my blue   suede      shoes                   Hey
     on
 
  G
e|------ ------ ------ ------|------ ------ ------ ------|
B|---------------------------|---------------------------|
G|--------------10-----------|--------------10-----------|
D|12-12--14-----12-----14-12-|---12--14-----12-----14----|
A|10-10--10-----10-----10-10-|---10--10-----10-----10-12-|
E|---------------------------|------------------------10-|  
         little little I'll   play      fiddle
                                 my

  D
e|------ ------ ------ ------|------ ------ ------ ------|
B|---------------------------|---------------------------|
G|---------------------------|---------------------------|
D|--------------10-----------|--------------10-----------|
A|12-12--14-----12-----14-12-|12-12--14-----12-----12----|
E|10-10--10-----10-----10-10-|10-10--10-----10-----10----|  
     Ain't      nothing   lose                     Roll 
         got           to                             over
e|------ ------ ------ ------|------ ------ ------ ------|
B|---------------------7--7--|---------------------------|
G|---------------------5--5--|---------------------------|
D|---------------------7--7--|---------------------------|
A|---------------------5--5--|---------------------------|
E|---------------------------|---------------------------|



  G                    A
e|------ ------ ------ ------|------ ------ ------ ------|
B|---------------------------|---------------------------|
G|--------------10-----------|--------------12-----------|
D|12-12--14-----12-----14----|14-----16-----14-----16----|
A|10-10--10-----10-----12----|12-----12-----12-----12-12-|
E|---------------------------|------------------------10-|  
         Beethoven     And    tell   Tchaikovsky   the 
                                                      news

     D
e|------ ------ ------ ------|------ ------ ------ ------|
B|---------------------------|---------------------------|
G|---------------------------|---------------------------|
D|--------------10-----------|--------------10-----------|
A|---12--14-----12-----14-12-|12-12--14-----12-----12----|
E|---10--10-----10-----10-10-|10-10--10-----10-----10----|  
                                               You know 
                                                      she
e|------ ------ ------ ------|------ ------ ------ ------|
B|---7---7-------------7--7--|---------------------------|
G|---5---5-------------5--5--|---------------------------|
D|---7---7-------------7--7--|---------------------------|
A|---5---5-------------5--5--|---------------------------|
E|---------------------------|---------------------------|


  02:04
                              G
e|------ ------ ------ ------|------ ------ ------ ------|
B|---------------------------|---------------------------|
G|---------------------------|--------------10-----------|
D|--------------10-----------|12-12--14-----12-----14-12-|
A|12-12--14-----12-----14----|10-10--10---- 10-----10-10-|
E|10-10--10-----10-----10----|---------------------------|  
  winks  a  glow   worm       Dance  like      spinnin' 
     like                               a             top
e|------ ------ ------ ------|------ ------ ------ ------|
B|7----------------7---------|---------------------------|
G|5----------------5---------|---------------------------|
D|7----------------7---------|---------------------------|
A|5----------------5---------|---------------------------|
E|---------------------------|---------------------------|



  D
e|------ ------ ------ ------|------ ------ ------ ------|
B|---------------------------|---------------------------|
G|---------------------------|---------------------------|
D|--------------10-----------|--------------10-----------|
A|12-12--14-----12-----14-12-|15-----14-----12-----14----|
E|10-10--10-----10-----10-10-|10-----10-----10-----10----|  
                                               She's  a 
                                                   got
e|------ ------ ------ ------|------ ------ ------ ------|
B|--------------7--7------7--|7------7-------------------|
G|--------------5--5------5--|5------5-------------------|
D|--------------7--7------7--|7------7-------------------|
A|--------------5--5------5--|5------5-------------------|
E|---------------------------|---------------------------|



  G
e|------ ------ ------ ------|------ ------ ------ ------|
B|---------------------------|---------------------------|
G|--------------10-----------|--------------10-----------|
D|12-12--14-----12-----14-12-|---12--14-----12-----14----|
A|10-10--10-----10-----10-10-|---10--10-----10-----10----|
E|---------------------------|---------------------------|  
  crazy     partner       Oughta     see       reel   and 
                                        'em


  D
e|------ ------ ------ ------|------ ------ ------ ------|
B|---------------------------|---------------------------|
G|---------------------------|---------------------------|
D|--------------10-----------|--------------10-----------|
A|12-12--14-----12-----14-12-|12-12--14-12--12-----12----|
E|10-10--10-----10-----10-10-|10-10--10-10--10-----10----|  
  rock                                             Long 
                                                      as
e|------ ------ ------ ------|------ ------ ------ ------|
B|----------7-------------7--|---7----------7------------|
G|----------5-------------5--|---5----------5------------|
D|----------7-------------7--|---7----------7------------|
A|----------5-------------5--|---5----------5------------|
E|---------------------------|---------------------------|



  G                    A
e|------ ------ ------ ------|------ ------ ------ ------|
B|---------------------------|---------------------------|
G|--------------10-----------|--------------12-----------|
D|12-12--14-----12-----14----|14-----16-----14-----16----|
A|10-10--10-----10-----12----|12-----12-----12-----12-12-|
E|---------------------------|------------------------10-|  
  she     a dime          The music  will   never     stop
     got


     D
e|------ ------ ------ ------|------ ------ ------ ------|
B|---------------------------|---------------------------|
G|---------------------------|---------------------------|
D|--------------10-----------|--------------10-----------|
A|---12--14-----12-----14-12-|12-12--14-----12-----12----|
E|---10--10-----10-----10-10-|10-10--10-----10-----10----|  
                                     Roll          Beethoven
                                        over
e|------ ------ ------ ------|------ ------ ------ ------|
B|---7------7---7---------7--|---7------7------7---7--7--|
G|---5------5---5---------5--|---5------5------5---5--5--|
D|---7------7---7---------7--|---7------7------7---7--7--|
A|---5------5---5---------5--|---5------5------5---5--5--|
E|---------------------------|---------------------------|


  02:23

e|------ ------ ------ ------|------ ------ ------ ------|
B|---------------------------|---------------------------|
G|---------------------------|---------------------------|
D|--------------10-----------|--------------10-----------|
A|12-12--14-----12-----14-12-|12-12--14-12--12-----12----|
E|10-10--10-----10-----10-10-|10-10--10-10--10-----10----|  
                                     Roll          Beethoven
                                        over
e|------ ------ ------ ------|------ ------ ------ ------|
B|-------7------7---------7--|----------7---7--7---7--7--|
G|-------5------5---------5--|----------5---5--5---5--5--|
D|-------7------7---------7--|----------7---7--7---7--7--|
A|-------5------5---------5--|----------5---5--5---5--5--|
E|---------------------------|---------------------------|




e|------ ------ ------ ------|------ ------ ------ ------|
B|---------------------------|---------------------------|
G|---------------------------|---------------------------|
D|--------------10-----------|--------------10-----------|
A|12-12--14-----12-----14-12-|12-12--14-12--12-----12----|
E|10-10--10-----10-----10-10-|10-10--10-10--10-----10----|  
                                     Roll          Beethoven
                                        over                              
e|------ ------ ------ ------|------ ------ ------ ------|
B|-------7------7---------7--|-------7------7--7---7-----|
G|-------5------5---------5--|-------5------5--5---5-----|
D|-------7------7---------7--|-------7------7--7---7-----|
A|-------5------5---------5--|-------5------5--5---5-----|
E|---------------------------|---------------------------|



  G
e|------ ------ ------ ------|------ ------ ------ ------|
B|---------------------------|---------------------------|
G|--------------10-----------|--------------10-----------|
D|12-12--14-----12-----14-12-|---12--14-----12-----14----|
A|10-10--10-----10-----10-10-|---10--10-----10-----10----|
E|---------------------------|---------------------------|  
                                     Roll          Beethoven
                                        over
e|------ ------ ------ ------|------ ------ ------ ------|
B|-------6------6--6------6--|-------6------6--6---6--6--|
G|-------4------4--4------4--|-------4------4--4---4--4--|
D|-------3------3--3------3--|-------3------3--3---3--3--|
A|-------5------5--5------5--|-------5------5--5---5--5--|
E|-------3------3--3------3--|-------3------3--3---3--3--|



  D
e|------ ------ ------ ------|------ ------ ------ ------|
B|---------------------------|---------------------------|
G|---------------------------|---------------------------|
D|--------------10-----------|--------------10-----------|
A|12-12--14-----12-----14-12-|12-12--14-12--12-----12----|
E|10-10--10-----10-----10-10-|10-10--10-10--10-----10----|  
                                     Roll          Beethoven
                                        over
e|------ ------ ------ ------|------ ------ ------ ------|
B|7-------------7------------|7---------7----------------|
G|5-------------5------------|5---------5----------------|
D|7-------------7------------|7---------7----------------|
A|5-------------5------------|5---------5----------------|
E|---------------------------|---------------------------|



  A5     A6     A5 ...
e|------ ------ ------ ------|------ ------ ------ ------|
B|---------------------------|---------------------------|
G|---------------------------|---------------------------|
D|---------------------------|---------------------------|
A|7------9------7------9-----|7------9--7------7---------|
E|5------5------5------5-----|5------5--5------5---------|  
            dig    to  this   rythm  and 
                                        blues
e|------ ------ ------ ------|------ ------ ------ ------|
B|---------------------------|-----------------10---9----|
G|---------------------------|---------------------------|
D|---------------------------|---------------------------|
A|---------------------------|---------------------------|
E|---------------------------|---------------------------|


                                     (.
  G             D
e|------ ------ ------ ------|------ 10---- ------ ------|
B|---------------------------|-------10------------------|
G|4------4------7------7--7--|-------11------------------|
D|5------5------7------7--7--|-------12------------------|
A|5------5------5------5--5--|-------12------------------|
E|---------------------------|-------10------------------|  

e|------ ------ ------ ------|------ ------ ------ ------|
B|---------------------------|---------------------------|
G|12-10----------------------|---------------------------|
D|----------12--10-----12-12-|---------------------------|
A|-----------------12--------|---------------------------|
E|---------------------------|---------------------------|





        B  Bend
        R  Release
        /  slide up
        \  slide down
        H  hammer-on
        P  pull-off
        ~  vibrato
        +  harmonic
        x  Mute note
        . - play note like a dot in standard notation
        ^ - ties two notes together
        (. Pause


 
  --------------------------------------------------------------
  
  THE BEATLES - HOLD ME TIGHT (Lennon & McCartney) From WITH THE 
                BEATLES album. Released on 22nd November 1963

  --------------------------------------------------------------

  Tabbed by:PJVillanueva






  It feels so right now, hold me tight,
  Tell me I'm the only one,
  And then I might,
  Never be the lonely one.
  So hold me tight, to-night, to-night,
  It's you,
  You you you - oo-oo - oo-oo.
  Hold me tight,
  Let me go on loving you,
  To-night to-night,
  Making love to only you,
  So hold me tight, to-night, to-night,
  It's you,
  You you you - oo-oo - oo-oo.
  Don't know what it means to hold you tight,
  Being here alone tonight with you,
  It feels so right now, feels so right now.
  Hold me tight,
  Tell me I'm the only one,
  And then I might,
  Never be the only one,
  So hold me tight, to-night, to-night,
  It's you,
  You you you - oo-oo - oo-oo.
  Don't know what it means to hold you tight,
  Being here alone tonight with you,
  It feels so right now, feels so right now.
  Hold me tight,
  Let me go on loving you,
  To-night, to-night,
  Making love to only you,
  So hold me tight, to-night, to-night,
  It's you,
  You you you - oo-oo - oo-oo.





E|----------------|----------------|----------------|----------------|
B|----------------|----------------|----------------|----------------|
G|----------------|----------------|----------------|----------------|
D|----------------|----------------|----------------|----------------|
A|----------------|----------------|--------2-2-----|2---2---2---2---|
E|----------------|----------------|0-0-3-4-----4-0-|----------------|
                                                  It feels so right now 
E|----------------|----------------|----------------|----------------|
B|----------------|----------------|----------------|----------------|
G|----------------|----------------|----------------|----------------|
D|----------------|----------------|----------------|----------------|
A|----------------|----------------|--------5-5-----|6---6---6---6---|
E|----------------|----------------|4-4-6-7-----7-4-|----------------|



E|----------------|----------------|----------------|----------------|
B|----------------|----------------|----------------|----------------|
G|----------------|----------------|----------------|----------------|
D|----------------|--------2-2-----|----------------|--------4-4-----|
A|--------2-2-----|----3-4-----4---|--------4-4-----|----5-6-----7-7-|
E|0-0-3-4-----4-3-/5-5-----------0-/2-2-5-6-----6-5-/7-7-------------|
  Hold     me tight                 Tell me I'm the only one  and         
E|----------------|----------------|----------------|----------------|
B|----------------|----------------|----------------|----------------|
G|----------------|----------------|----------------|----------------|
D|----------------|--------5-5-----|----------------|--------7-7-6---|
A|--------5-5-----|4-4-6-7-----7---|--------7-7-----|6-6-8-9---------|
E|4-4-6-7-----7---|----------------|6-6-8-9-----9---|----------------|



E|----------------|----------------|----------------|----------------|
B|----------------|----------------|----------------|----------------|
G|----------------|----------------|----------------|----------------|
D|----------------|--------2-2-----|----------------|--------4-4-----|
A|--------2-2-----|----3-4-----4---|--------4-4-----|----5-6-----6---|
E|0-0-3-4-----4-3-/5-5-----------0-/2-2-5-6-----6-2-/7-7-----------7-|
  then         I might                 never be  the lonely one    So
E|----------------|----------------|----------------|----------------|
B|----------------|----------------|----------------|----------------|
G|----------------|----------------|----------------|----------------|
D|----------------|--------5-5-----|----------------|--------7-7-----|
A|--------5-5-----|4-4-6-7-----7-7-|--------7-7-----|6-6-8-9-----9---|
E|4-4-6-7-----7---|----------------|6-6-8-9-----9---|----------------|



E|----------------|----------------|----------------|----------------|
B|----------------|----------------|----------------|----------------|
G|----------------|----------------|----------------|----------------|
D|----------------|----------------|2-2----2-2-2--2-|2-2----2-2-2--2-|
A|--------2-2-----|--------2-2-----|0-0----0-0-0--0-|0-0----0-0-0--0-|
E|0-0-3-4-----3-4-|0-0-3-4-----4-0-|----------------|----------------|
  hold          me tight         tonight           tonight        It's
E|----------------|----------------|----------------|----------------|
B|----------------|----------------|----------------|----------------|
G|----------------|----------------|----------------|----------------|
D|----------------|----------------|2-2----2-2-2----|2---2--2-2-2----|
A|--------5-5-----|--------5-5-----|4-4----4-4-4----|3---3--3-3-3----|
E|4-4-6-7-----7---|4-4-6-7-----7---|----------------|----------------|



E|----------------|----------------|----------------|----------------|
B|----------------|----------------|----------------|----------------|
G|----------------|----------------|----------------|----------------|
D|------------2---|------------2---|------------2---|--------4-------|
A|--------2-------|0-0-3-----------|--------2-2-----|----5-6---------|
E|0-0-3-4---------|----------------|0-0-3-4---------|7-7-------------|
  you                      you  you you   oo-oo   oo-oo   
E|----------------|----------------|----------------|----------------|
B|----------------|----------------|----------------|----------------|
G|----------------|----------------|----------------|----------------|
D|----------------|2-2---2---2-2---|----------------|--------7-------|
A|--------5-------|0-0---3---0-0---|--------5-------|6-6-8-9---------|
E|4-4-6-7-----7---|----------------|4-4-6-7-----7---|----------------|



E|----------------|----------------|----------------|----------------|
B|----------------|----------------|----------------|----------------|
G|----------------|----------------|----------------|----------------|
D|----------------|--------2-2-----|----------------|--------4-4-----|
A|--------2-2-----|----3-4-----4---|--------4-4-----|----5-6-----6---|
E|0-0-3-4-----4-3-/5-5-----------0-/2-2-5-6-----6-2-/7-7-----------7-|
  Hold         me tight,               Let me go on  loving you, To-night
E|----------------|----------------|----------------|----------------|
B|----------------|----------------|----------------|----------------|
G|----------------|----------------|----------------|----------------|
D|----------------|--------5-5-----|----------------|--------7-7-6---|
A|--------5-5-----|4-4-6-7-----7---|--------7-7-----|6-6-8-9---------|
E|4-4-6-7-----7---|----------------|6-6-8-9-----9---|----------------|




E|----------------|----------------|----------------|----------------|
B|----------------|----------------|----------------|----------------|
G|----------------|----------------|----------------|----------------|
D|----------------|--------2-2-----|----------------|--------4-4-----|
A|--------2-2-----|----3-4-----4---|--------4-4-----|----5-6-----6---|
E|0-0-3-4-----4-3-/5-5-----------0-/2-2-5-6-----6-2-/7-7-----------7-|
              to-night,               Making love to only you,     So
E|----------------|----------------|----------------|----------------|
B|----------------|----------------|----------------|----------------|
G|----------------|----------------|----------------|----------------|
D|----------------|--------5-5-----|----------------|--------7-7-----|
A|--------5-5-----|4-4-6-7-----7---|--------7-7-----|6-6-8-9-----9---|
E|4-4-6-7-----7---|----------------|6-6-8-9-----9---|----------------|
  


E|----------------|----------------|----------------|----------------|
B|----------------|----------------|----------------|----------------|
G|----------------|----------------|----------------|----------------|
D|----------------|----------------|2-2----2-2-2--2-|2-2----2-2-2--2-|
A|--------2-2-----|--------2-2-----|0-0----0-0-0--0-|0-0----0-0-0--0-|
E|0-0-3-4-----3-4-|0-0-3-4-----4-0-|----------------|----------------|
  hold        me tight,        to-night,        to-night,        It's
E|----------------|----------------|----------------|----------------|
B|----------------|----------------|----------------|----------------|
G|----------------|----------------|----------------|----------------|
D|----------------|----------------|2-2----2-2-2----|2---2--2-2-2----|
A|--------5-5-----|--------5-5-----|4-4----4-4-4----|3---3--3-3-3----|
E|4-4-6-7-----7---|4-4-6-7-----7---|----------------|----------------|



E|----------------|----------------|----------------|----------------|
B|----------------|----------------|----------------|----------------|
G|----------------|----------------|----------------|----------------|
D|------------2---|--------2---2---|----------------|----------------|
A|--------2-------|0-0-3-0---------|--------2-------|--------5-5-----|
E|0-0-3-4---------|----------------|0-0-3-4-----4---|3-3-6-7-----7---|
  you,                      You you you - oo-oo - oo-oo.         Don't
E|----------------|----------------|----------------|----------------|
B|----------------|----------------|----------------|----------------|
G|----------------|----------------|----------------|----------------|
D|----------------|2-2---2---2-2---|----------------|----------------|
A|--------5-------|0-0---3---0-0---|--------5-------|--------8-8-----|
E|4-4-6-7-----7---|----------------|4-4-6-7-----7---|7-7-910-----10--|



E|----------------|----------------|----------------|----------------|
B|----------------|----------------|----------------|----------------|
G|----------------|----------------|----------------|----------------|
D|----------------|----------------|----------------|--------2-2-----|
A|--------2-2-----|--------5-5-----|--------2-2-----|0-0-3-4-------0-|
E|0-0-3-4-----4---|3-3-6-7-----7---|0-0-3-4-----4---|----------------|
  know              what it means to hold you tight,     Being here a..
E|----------------|----------------|----------------|----------------|
B|----------------|----------------|----------------|----------------|
G|----------------|----------------|----------------|----------------|
D|----------------|----------------|----------------|--------5-5-----|
A|--------5-5-----|--------8-8-----|--------5-5-----|4-4-6-7---------|
E|4-4-6-7-----7---|7-7-910-----10--|4-4-6-7-----7---|----------------|



E|----------------|----------------|----------------|
B|----------------|----------------|----------------|
G|----------------|----------------|----------------|
D|----------------|----------------|--------4-4-----|
A|--------4-4-----|--------4-4-4---|----5-6-----6---|
E|2-2-5-6-------0-|2-2-5-6---------|7-7-------------|
  lone tonight with you,        It feels so right now
E|----------------|----------------|----------------|
B|----------------|----------------|----------------|
G|----------------|----------------|----------------|
D|----4---4-4-----|----2---2-2-2---|--------7-7-----|
A|----4---4-4-----|----4---4-4-4---|6-6-8-9-----9---|
E|----------------|----------------|----------------|      



E|----------------|----------------|----------------|----------------|
B|----------------|----------------|----------------|----------------|
G|----------------|----------------|----------------|----------------|
D|----------------|--------2-2-----|----------------|--------4-4-----|
A|--------2-2-----|----3-4-----4---|--------4-4-----|----5-6-----7---|
E|0-0-3-4-----4-3/|5-5-------------|2-2-5-6-----6-5/|7-7-------------|
  Hold     me tight                    Tell me I'm the only one   and
E|----------------|----------------|----------------|----------------|
B|----------------|----------------|----------------|----------------|
G|----------------|----------------|----------------|----------------|
D|----------------|--------5-5-----|----------------|--------7-7-6---|
A|--------5-5-----|4-4-6-7-----7---|--------7-7-----|6-6-8-9---------|
E|4-4-6-7-----7---|----------------|6-6-8-9-----9---|----------------|



E|----------------|----------------|----------------|----------------|
B|----------------|----------------|----------------|----------------|
G|----------------|----------------|----------------|----------------|
D|----------------|--------2-2-----|----------------|--------4-4-----|
A|--------2-2-----|----3-4-----4---|--------4-4-----|----5-6-----6---|
E|0-0-3-4-----4-3-/5-5-----------0-/2-2-5-6-----6-2-/7-7-----------7-|
  then        I might                  never be the lonely one    So 
E|----------------|----------------|----------------|----------------|
B|----------------|----------------|----------------|----------------|
G|----------------|----------------|----------------|----------------|
D|----------------|--------5-5-----|----------------|--------7-7-6---|
A|--------5-5-----|4-4-6-7-----7---|--------7-7-----|6-6-8-9---------|
E|4-4-6-7-----7---|----------------|6-6-8-9-----9---|----------------|



E|----------------|----------------|----------------|----------------|
B|----------------|----------------|----------------|----------------|
G|----------------|----------------|----------------|----------------|
D|----------------|----------------|2-2----2-2-2--2-|2-2----2-2-2--2-|
A|--------2-2-----|--------2-2-----|0-0----0-0-0--0-|0-0----0-0-0--0-|
E|0-0-3-4-----3-4-|0-0-3-4-----4-0-|----------------|----------------|
  hold        me tight          tonight          tonight        It's
E|----------------|----------------|----------------|----------------|
B|----------------|----------------|----------------|----------------|
G|----------------|----------------|----------------|----------------|
D|----------------|----------------|2-2----2-2-2----|2---2--2-2-2----|
A|--------5-5-----|--------5-5-----|4-4----4-4-4----|3---3--3-3-3----|
E|4-4-6-7-----7-7-|4-4-6-7-----7-7-|----------------|----------------|



E|----------------|----------------|----------------|----------------|
B|----------------|----------------|----------------|----------------|
G|----------------|----------------|----------------|----------------|
D|----------------|------------2---|----------------|--------4-------|
A|--------2-2-2---|0---3-3---------|--------2---2---|----5-6---------|
E|0-0-3-4---------|----------------|0-0-3-4---------|7-7-------------|
  you                      you  you you   oo-oo   oo-oo          don't 
E|----------------|----------------|----------------|----------------|
B|----------------|----------------|----------------|----------------|
G|----------------|----------------|----------------|----------------|
D|----------------|2-2-2---2-2-2---|----------------|--------7-------|
A|--------5-5-5---|0-0-3---0-0-3---|--------5---5---|6-6-8-9---------|
E|4-4-6-7---------|----------------|4-4-6-7---------|----------------|



E|----------------|----------------|----------------|----------------|
B|----------------|----------------|----------------|----------------|
G|----------------|----------------|----------------|----------------|
D|----------------|----------------|----------------|--------2-2-2---|
A|--------2-2-2---|--------5-5-----|--------2-2-2---|0-0-3-4---------|
E|0-0-3-4---------|3-3-6-7-----7---|0-0-3-4---------|--------------0-|
  know              what it means to hold you tight,     Being here a..
E|----------------|----------------|----------------|----------------|
B|----------------|----------------|----------------|----------------|
G|----------------|----------------|----------------|----------------|
D|----------------|----------------|----------------|--------5-5-----|
A|--------5-5-5---|--------8-8-----|--------5-5-----|4-4-6-7-----7---|
E|4-4-6-7---------|7-7-910-----10--|4-4-6-7-----7---|----------------|



E|----------------|----------------|----------------|
B|----------------|----------------|----------------|
G|----------------|----------------|----------------|
D|----------------|----------------|--------4-4-----|
A|----4-4-----4-4-|--------4-4-4---|----5-6-----6---|
E|2-2-----2-2-----|2-2-5-6---------|7-7-------------|
  lone tonight with you,        It feels so right now
E|----------------|----------------|----------------|
B|----------------|----------------|----------------|
G|----------------|----------------|----------------|
D|----4-4-----4---|--------2-2-2---|--------7-7-----|
A|----4-4-----4---|--------4-4-4---|6-6-8-9-----9---|
E|----------------|----------------|----------------|  



E|----------------|----------------|----------------|----------------|
B|----------------|----------------|----------------|----------------|
G|----------------|----------------|----------------|----------------|
D|----------------|--------2-2-----|----------------|--------4-4-----|
A|--------2-2-----|----3-4-----4---|--------4-4-----|----5-6-----6---|
E|0-0-3-4-----4-3-/5-5-----------0-/2-2-5-6-----6-2-/7-7-----------7-|
  Hold         me tight,               Let me go on  loving you, To-night
E|----------------|----------------|----------------|----------------|
B|----------------|----------------|----------------|----------------|
G|----------------|----------------|----------------|----------------|
D|----------------|--------5-5-----|----------------|--------7-7-6---|
A|--------5-5-----|4-4-6-7-----7---|--------7-7-----|6-6-8-9---------|
E|4-4-6-7-----7---|----------------|6-6-8-9-----9---|----------------|



E|----------------|----------------|----------------|----------------|
B|----------------|----------------|----------------|----------------|
G|----------------|----------------|----------------|----------------|
D|----------------|--------2-2-----|----------------|--------4-4-----|
A|--------2-2-----|----3-4-----4---|--------4-4-----|----5-6-----6---|
E|0-0-3-4-----4-3-/5-5-----------0-/2-2-5-6-----6-2-/7-7-----------7-|
              to-night,               Making love to only you,     So
E|----------------|----------------|----------------|----------------|
B|----------------|----------------|----------------|----------------|
G|----------------|----------------|----------------|----------------|
D|----------------|--------5-5-----|----------------|--------7-7-----|
A|--------5-5-----|4-4-6-7-----7---|--------7-7-----|6-6-8-9---------|
E|4-4-6-7-----7---|----------------|6-6-8-9-----9---|----------------|



E|----------------|----------------|----------------|----------------|
B|----------------|----------------|----------------|----------------|
G|----------------|----------------|----------------|----------------|
D|----------------|----------------|2-2-----2---2---|2-2----2-2-2--2-|
A|--------2-------|--------2-2-----|0-0-----0---0---|0-0----0-0-0--0-|
E|0-0-3-4-----3-4-|0-0-3-4-----4-0-|----------------|----------------|
  hold        me tight,        to-night,        to-night,        It's
E|----------------|----------------|----------------|----------------|
B|----------------|----------------|----------------|----------------|
G|----------------|----------------|----------------|----------------|
D|----------------|----------------|2-2----2-2-2----|2---2--2-2-2----|
A|--------5-------|--------5-5-----|4-4----4-4-4----|3---3--3-3-3----|
E|4-4-6-7-----7---|4-4-6-7-----7---|----------------|----------------|



E|----------------|----------------|----------------|----------------|
B|----------------|----------------|----------------|----------------|
G|----------------|----------------|----------------|----------------|
D|----------------|----------------|----------------|----------------|
A|--------2-2-----|0-0-3-3-0-0-3---|--------2-2-----|--------5-5-----|
E|0-0-3-4-----4---|----------------|0-0-3-4-----4---|3-3-6-7-----7---|
  you,                      You you you - oo-oo - oo-oo.           oo-
E|----------------|----------------|----------------|----------------|
B|----------------|----------------|----------------|----------------|
G|----------------|----------------|----------------|----------------|
D|----------------|2-2---2---2-2---|----------------|----------------|
A|--------5-5-----|0-0---3---0-0---|--------5-------|--------8-8-----|
E|4-4-6-7-----7---|----------------|4-4-6-7-----7---|7-7-910-----10--|


  Ritardando                        (. 
E|----------------|----------------|0---------------|----------------|
B|----------------|----------------|0---------------|----------------|
G|----------------|----------------|1---------------|----------------|
D|----------------|----------------|2---------------|----------------|
A|--------2-2-----|--------5-5-----|2---------------|----------------|
E|0-0-3-4-----4---|3-3-6-7-----7---|0---------------|----------------|
  oo               you           oo-oo   
E|----------------|----------------|----------------|----------------|
B|----------------|----------------|----------------|----------------|
G|----------------|----------------|9---------------|----------------|
D|----------------|----------------|9---------------|----------------|
A|--------5-5-----|--------8-8-----|7---------------|----------------|
E|4-4-6-7-----7---|7-7-910-----10--|----------------|----------------|





        B  Bend
        R  Release
        /  slide up
        \  slide down
        H  hammer-on
        P  pull-off
        ~  vibrato
        +  harmonic
        x  Mute note
        . - play note like a dot in standard notation
        ^ - ties two notes together
        (. Pause



  -----------------------------------------------------------------

  THE BEATLES - YOU REALLY GOT A HOLD ON ME (Robinson) From WITH
                THE BEATLES album. Released on 22nd November 1963.

  -----------------------------------------------------------------

  Tabbed by:PJVillanueva

                                     



  I don't like you
  But I love you
  Seems that I'm always
  Thinkin' of you
  Oh, ho, ho, You treat me badly
  I love you madly
  You've really got a hold on me
  (You really got a hold on me)
  You really got a hold on me
  (You really got a hold on me)

  Baby
  I don't want you
  But I need you
  Don't wanna kiss you
  But I need to
  Oh, ho, ho you do me wrong now
  My love is strong now
  You've really got a hold on me
  (You really got a hold on me)
  You really got a hold on me
  (You really got a hold on me)

  Baby
  I love you and all I want you to do
  Is just
  Hold me
  Hold me
  Hold me
  Hold me

  Tied up
  Tied up

  I wanna leave you
  Don't wanna stay here
  Don't wanna spend another day here
  Oh ho ho, I wanna split now
  I just can't quit now
  You've really got a hold on me
  (You really got a hold on me)
  You really got a hold on me
  (You really got a hold on me)

  Baby
  I love you and all I want you to do
  Is just
  Hold me (please)
  Hold me (squeeze)
  Hold me

  You really got a hold on me
  (You really got a hold on me)
  You really got a hold on me
  (You really got a hold on me)




e|------ ------ ------ ------|------ ----0- 0-2-5- 7-5-2-|
B|---------------------------|---------------------------|
G|---------------------------|---------------------------|
D|---------------------------|---------------------------|
A|---------------------------|---------------------------|
E|---------------------------|-----------0--0-2-5--7-5-2-|



  A                           F#m                      E
e|0---0- 0----- 0----- 0---0-|2---2- 2---2- 2-2-2- 2-2-0-|
B|2---2--2------2------2---2-|2---2--2---2--2-2-2--2-2-0-|
G|2---2--2------2------2---2-|2---2--2---2--2-2-2--2-2-1-|
D|2---2--2------2------2---2-|4---4--4---4--4-4-4--4-4-2-|
A|0---0--0------0------0---0-|4---4--4---4--4-4-4--4-4-2-|
E|---------------------------|2---2--2---2--2-2-2--2-2-0-|
 
e|5----- ------ ------ ------|------ ------ ------ ------|
B|---------------------------|---------------------------|
G|---------------------------|---------------------------|
D|---------------------------|---------------------------|
A|-------4------4---2--0---2-|---------------------------|
E|5--------------------------|2--------------------------|



  A                           F#m                      E
e|0-0-0- 0----- 0---0- 0---0-|2-2-2- 2----- 2-2-2- 2-2-0-|
B|2-2-2--2------2---2--2---2-|2-2-2--2------2-2-2--2-2-0-|
G|2-2-2--2------2---2--2---2-|2-2-2--2------2-2-2--2-2-1-|
D|2-2-2--2------2---2--2---2-|4-4-4--4------4-4-4--4-4-2-|
A|0-0-0--0------0---0--0---0-|4-4-4--4------4-4-4--4-4-2-|
E|---------------------------|2-2-2--2------2-2-2--2-2-0-|
 
e|------ ------ ------ ------|------ ------ ------ ------|
B|---------------------------|---------------------------|
G|---------------------------|---------------------------|
D|---------------------------|---------------------------|
A|-------4------4---2--0---2-|---------------------------|
E|---------------------------|2--------------------------|



  A  
e|0----- 0---0- 0----- 0-----|0----- 0---0- 0----- 0-----|
B|2------2---2--2------2-----|2------2---2--2------2-----|
G|2------2---2--2------2-----|2------2---2--2------2-----|
D|2------2---2--2------2-----|2------2---2--2------2-----|
A|0------0---0--0------0-----|0------0---0--0------0---0-|
E|---------------------------|-------------------------0-|
  I      don't  like   you       But I      love   you


  F#m   
e|2----- 2---2- 2----- 2---2-|2---2- 2---2- 2-2-2- 2-----|
B|2------2---2--2------2---2-|2---2--2---2--2-2-2--2-----|
G|2------2---2--2------2---2-|2---2--2---2--2-2-2--2-----|
D|4------4---4--4------4---4-|4---4--4---4--4-4-4--4-----|
A|4------4---4--4------4---4-|4---4--4---4--4-4-4--4---0-|
E|2------2---2--2------2---2-|2---2--2---2--2-2-2--2---0-|
  Seems  that I'm always             thinking of   you

  A             A7            D

e|0----- 0---0- 3---3- 3---3-|2-2-2- 2----- 2-2-2- 2-2-2-|
B|2------2---2--2---2--2---2-|3-3-3--3------3-3-3--3-3-3-|
G|2------2---2--2---2--2---2-|2-2-2--2------2-2-2--2-2-2-|
D|2------2---2--2---2--2---2-|0-0-0--0------0-0-0--0-0-0-|
A|0------0---0--0---0--0---0-|---------------------------|
E|---------------------------|---------------------------|
  Oh,    ho     ho you treat me badly          I  love you
e|------ ------ ------ ------|------ ------ ------ ------|
B|---------------------------|---------------------------|
G|---------------------------|---------------------------|
D|---------------------------|---------------------------|
A|---------------------------|-----------------------0-1-|
E|---------------------------|---------------------------|



  7             E             A
e|2---2- 2-2-2- 0---0- 0-0-0-|0----- 0---0- 0----- 0---0-|
B|4---4--4-4-4--0---0--0-0-0-|2------2---2--2------2---2-|
G|2---2--2-2-2--1---1--1-1-1-|2------2---2--2------2---2-|
D|4---4--4-4-4--2---2--2-2-2-|2------2---2--2------2---2-|
A|2---2--2-2-2--2---2--2-2-2-|0------0---0--0------0---0-|
E|--------------0---0--0-0-0-|---------------------------|
  madly    You've really got a hold   on me
                                    (You    really got a
e|------ ------ ------ ------|------ ------ ------ ------|
B|---------------------------|---------------------------|
G|---------------------------|---------------------------|
D|---------------------------|---------------------------|
A|2--------2-----------------|---------------------------|
E|-----------2--0------------|---------------------------|



                              F#m
e|0---0- 0----- 0---0- 0---0-|2----- 2---2- 2----- 2---2-|
B|2---2--2------2---2--2---2-|2------2---2--2------2---2-|
G|2---2--2------2---2--2---2-|2------2---2--2------2---2-|
D|2---2--2------2---2--2---2-|4------4---4--4------4---4-|
A|0---0--0------0---0--0---0-|4------4---4--4------4---4-|
E|---------------------------|2------2---2--2------2---2-|
             You really got a  hold on me
  hold   on me)                       (You  really got a
e|------ ------ ------ ------|------ ------ ------ ------|
B|---------------------------|---------------------------|
G|---------------------------|---------------------------|
D|---------------------------|---------------------------|
A|-------4------4---2--0---2-|---------------------------|
E|---------------------------|2--------------------------|



               
e|2----- 2---2- 2-2-2- 2---2-|
B|2------2---2--2-2-2--2---2-|
G|2------2---2--2-2-2--2---2-|
D|4------4---4--4-4-4--4---4-|
A|4------4---4--4-4-4--4---4-|
E|2------2---2--2-2-2--2---2-|
             baby   
  hold  on   me)


  A
e|0----- 0---0- 0----- 0-----|0----- 0---0- 0----- 0-----|
B|2------2---2--2------2-----|2------2---2--2------2-----|
G|2------2---2--2------2-----|2------2---2--2------2-----|
D|2------2---2--2------2-----|2------2---2--2------2-----|
A|0------0---0--0------0-----|0------0---0--0------0---0-|
E|---------------------------|-------------------------0-|
  I      don't  want   you       but I      need   you



  F#m
e|2----- 2---2- 2----- 2-----|2-2-2- 2---2- 2-2-2- 2-----|
B|2------2---2--2------2-----|2-2-2--2---2--2-2-2--2-----|
G|2------2---2--2------2-----|2-2-2--2---2--2-2-2--2-----|
D|4------4---4--4------4-----|4-4-4--4---4--4-4-4--4-----|
A|4------4---4--4------4-----|4-4-4--4---4--4-4-4--4---0-|
E|2------2---2--2------2-----|2-2-2--2---2--2-2-2--2---0-|
  Don't  wanna  kiss   you       but I      need   to



  A             A7            D
e|0----- 0---0- 3---3- 3---3-|2-2-2- 2----- 2-2-2- 2-2-2-|
B|2------2---2--2---2--2---2-|3-3-3--3------3-3-3--3-3-3-|
G|2------2---2--2---2--2---2-|2-2-2--2------2-2-2--2-2-2-|
D|2------2---2--2---2--2---2-|0-0-0--0------0-0-0--0-0-0-|
A|0------0---0--0---0--0---0-|---------------------------|
E|---------------------------|---------------------------|
  Oh,    ho     ho  you do me wrong now         my love is
e|------ ------ ------ ------|------ ------ ------ ------|
B|---------------------------|---------------------------|
G|---------------------------|---------------------------|
D|---------------------------|---------------------------|
A|---------------------------|-----------------------0-1-|
E|---------------------------|---------------------------|




  B7            E             A
e|2---2- 2-2-2- 0---0- 0-0-0-|0----- 0---0- 0----- 0---0-|
B|4---4--4-4-4--0---0--0-0-0-|2------2---2--2------2---2-|
G|2---2--2-2-2--1---1--1-1-1-|2------2---2--2------2---2-|
D|4---4--4-4-4--2---2--2-2-2-|2------2---2--2------2---2-|
A|2---2--2-2-2--2---2--2-2-2-|0------0---0--0------0---0-|
E|--------------0---0--0-0-0-|---------------------------|   
 strong now, You really got a hold   on me
                                    (You    really got a
e|------ ------ ------ ------|------ ------ ------ ------|
B|---------------------------|---------------------------|
G|---------------------------|---------------------------|
D|---------------------------|---------------------------|
A|2--------------------------|---------------------------|
E|-----------2--0------------|---------------------------|




                              F#m
e|0---0- 0----- 0---0- 0---0-|2----- 2-2-2- 2----- 2---2-|
B|2---2--2------2---2--2---2-|2------2-2-2--2------2---2-|
G|2---2--2------2---2--2---2-|2------2-2-2--2------2---2-|
D|2---2--2------2---2--2---2-|4------4-4-4--4------4---4-|
A|0---0--0------0---0--0---0-|4------4-4-4--4------4---4-|
E|---------------------------|2------2-2-2--2------2---2-|
             You really got a  hold      on me
  hold   on me)                       (You  really got a
e|------ ------ ------ ------|------ ------ ------ ------|
B|---------------------------|---------------------------|
G|---------------------------|---------------------------|
D|---------------------------|---------------------------|
A|-------4------4---2--0---2-|---------------------------|
E|---------------------------|2--------------------------|



                           E
e|2----- 2---2- 2-2-2- 2-2-0-|
B|2------2---2--2-2-2--2-2-0-|
G|2------2---2--2-2-2--2-2-1-|
D|4------4---4--4-4-4--4-4-2-|
A|4------4---4--4-4-4--4-4-2-|
E|2------2---2--2-2-2--2-2-0-|
             baby   
  hold  on   me)



  A             A7            D
e|5-5-5- 5----- 5-5-5- 5-----|2-2-2- 2----- 2-2-2- 2-----|
B|5-5-5--5------8-8-8--8-----|3-3-3--3------3-3-3--3-----|
G|6-6-6--6------6-6-6--6-----|2-2-2--2------2-2-2--2---0-|
D|7-7-7--7------7-7-7--7-----|0-0-0--0------0-0-0--0---0-|
A|7-7-7--7------7-7-7--7-----|---------------------------|
E|5-5-5--5------5-5-5--5-----|---------------------------|
  I      love   you and all I want    you to do is just



  A                                         E
e|0----- ------ 0----- ------|0----- ------ 0----- ------|
B|2-------------2------------|2-------------0------------|
G|2-------------2------------|2-------------1------------|
D|2-------------2------------|2-------------2------------|
A|0-------------0------------|0-------------2------------|
E|---------------------------|--------------0------------|
  Hold me       hold me       hold me       hold me



                       A             F#m    E
e|------ ------ ------|0----- 0---0- 2----- 0-----|
B|--------------------|2------2---2--2------0-----|
G|--------------------|2------2---2--2------1-----|
D|--------------------|2------2---2--4------2-----|
A|--------------------|0------0---0--4------2-----|
E|--------------------|--------------2------0-----|

e|----0- 0-2-5- 7-5-2-|5----- ------ ------ ------|
B|--------------------|---------------------------|
G|--------------------|---------------------------|
D|--------------------|-------2------4------2-----|
A|--------------------|-------2---4--4------2---4-|
E|----0--0-2-5--7-5-2-|5--------------------------|




  F#m    E      A                           F#m    E
e|2----- 0----- 0----- ------|0----- 0---0- 2----- 0-----|
B|2------0------2------------|2------2---2--2------0-----|
G|2------1------2------------|2------2---2--2------1-----|
D|4------2------2------------|2------2---2--4------2-----|
A|4------2------0------------|0------0---0--4------2-----|
E|2------0-------------------|--------------2------0-----|
                       Tied up                           
e|------ ------ ------ ------|------ ------ ------ ------|
B|---------------------------|---------------------------|
G|2------1------2------------|-------2------4------2-----|
D|4------2------2------------|-------2------4------2---4-|
A|4------2------0------------|0----------4-------------4-|
E|---------------------------|---------------------------|





  F#m    E      A
e|2----- 0----- 0----- ------|
B|2------0------2------------|
G|2------1------2------------|
D|4------2------2------------|
A|4------2------0------------|
E|2------0-------------------|
                       Tied up
e|------ ------ ------ ------|
B|---------------------------|
G|2------1------2------------|
D|4------2------2------------|
A|4------2------0------------|
E|---------------------------|




  A
e|0----- 0---0- 0----- 0-----|0----- 0---0- 0---0- 0---0-|
B|2------2---2--2------2-----|2------2---2--2---2--2---2-|
G|2------2---2--2------2-----|2------2---2--2---2--2---2-|
D|2------2---2--2------2-----|2------2---2--2---2--2---2-|
A|0------0---0--0------0-----|0------0---0--0---0--0---0-|
E|---------------------------|---------------------------|
  I      wanna  leave  you       don't wanna stay  here



  F#m
e|2----- 2---2- 2----- 2---2-|2---2- 2---2- 2----- 2---2-|
B|2------2---2--2------2---2-|2---2--2---2--2------2---2-|
G|2------2---2--2------2---2-|2---2--2---2--2------2---2-|
D|4------4---4--4------4---4-|4---4--4---4--4------4---4-|
A|4------4---4--4------4---4-|4---4--4---4--4------4---4-|
E|2------2---2--2------2---2-|2---2--2---2--2------2---2-|
  Don't  wanna  spend             another   day    here
 


  A             A7            D 
e|0---0- 0----- 3---3- 3---3-|2-2-2- 2---2- 2-2-2- 2-2-2-|
B|2---2--2------2---2--2---2-|3-3-3--3---3--3-3-3--3-3-3-|
G|2---2--2------2---2--2---2-|2-2-2--2---2--2-2-2--2-2-2-|
D|2---2--2------2---2--2---2-|0-0-0--0---0--0-0-0--0-0-0-|
A|0---0--0------0---0--0---0-|---------------------------|
E|---------------------------|---------------------------|
  Oh,    ho     ho  I  wanna  split now       I just can't
e|------ ------ ------ ------|------ ------ ------ ------|
B|---------------------------|---------------------------|
G|---------------------------|---------------------------|
D|---------------------------|---------------------------|
A|---------------------------|-----------------------0-1-|
E|---------------------------|---------------------------|




  B7            E             A
e|2---2- 2---2- 0---0- 0---0-|0----- 0----- 0----- 0---0-|
B|4---4--4---4--0---0--0---0-|2------2------2------2---2-|
G|2---2--2---2--1---1--1---1-|2------2------2------2---2-|
D|4---4--4---4--2---2--2---2-|2------2------2------2---2-|
A|2---2--2---2--2---2--2---2-|0------0------0------0---0-|
E|--------------0---0--0---0-|---------------------------|   
  quit now,  You really got a hold   on me
                                    (You    really got a
e|------ ------ ------ ------|------ ------ ------ ------|
B|---------------------------|---------------------------|
G|---------------------------|---------------------------|
D|---------------------------|---------------------------|
A|2--------------------------|---------------------------|
E|-----------2--0------------|---------------------------|



                              F#m
e|0----- 0----- 0----- 0---0-|2----- 2----- 2---2- 2-----|
B|2------2------2------2---2-|2------2------2---2--2-----|
G|2------2------2------2---2-|2------2------2---2--2-----|
D|2------2------2------2---2-|4------4------4---4--4-----|
A|0------0------0------0---0-|4------4------4---4--4-----|
E|---------------------------|2------2------2---2--2-----|
             You really got a  hold      on me
  hold   on me)                       (You  really got a
e|------ ------ ------ ------|------ ------ ------ ------|
B|---------------------------|---------------------------|
G|---------------------------|---------------------------|
D|---------------------------|---------------------------|
A|-------4------4---2--0---2-|---------------------------|
E|---------------------------|2--------------------------|


 


                           E
e|2----- 2---2- 2----- 2---0-|
B|2------2---2--2------2---0-|
G|2------2---2--2------2---1-|
D|4------4---4--4------4---2-|
A|4------4---4--4------4---2-|
E|2------2---2--2------2---0-|
             baby   
  hold  on   me)



  A             A7            D
e|5----- 5---5- 5----- 5---5-|2---2- 2---2- 2---2- 2-----|
B|5------5---5--8------8---8-|3---3--3---3--3---3--3-----|
G|6------6---6--6------6---6-|2---2--2---2--2---2--2---0-|
D|7------7---7--5------5---5-|0---0--0---0--0---0--0---0-|
A|7------7---7--7------7---7-|---------------------------|
E|5------5---5--5------5---5-|---------------------------|
  I      love   you and all I want    you to do is just



  A                                         E
e|0----- ------ 0----- ------|0----- ------ 0----- ------|
B|2-------------2------------|2-------------0------------|
G|2-------------2------------|2-------------1------------|
D|2-------------2------------|2-------------2------------|
A|0-------------0------------|0-------------2------------|
E|---------------------------|--------------0------------|
         Please        Squeeze
 (Hold me       hold me       hold me       hold me)




                       A
e|----0- 0-2-5- 7-5-2-|0----- 0---0- 0---0- 0---0-|
B|--------------------|2------2---2--2---2--2---2-|
G|--------------------|2------2---2--2---2--2---2-|
D|--------------------|2------2---2--2---2--2---2-|
A|--------------------|0------0---0--0---0--0---0-|
E|----0--0-2-5--7-5-2-|---------------------------|
                   You really got a  hold   on me
                                              (You


                              F#m
e|0---0- 0----- 0---0- 0---0-|2---2- 2-2-2- 2----- 2---2-|
B|2---2--2------2---2--2---2-|2---2--2-2-2--2------2---2-|
G|2---2--2------2---2--2---2-|2---2--2-2-2--2------2---2-|
D|2---2--2------2---2--2---2-|4---4--4-4-4--4------4---4-|
A|0---0--0------0---0--0---0-|4---4--4-4-4--4------4---4-|
E|---------------------------|2---2--2-2-2--2------2---2-|
                          You really got a  hold  on me
  really got a  hold   on me)                       (You



                              A
e|2-2-2- 2----- 2---2- 2-2-2-|0----- ------ 0----- ------|
B|2-2-2--2------2---2--2-2-2-|2-------------2------------|
G|2-2-2--2------2---2--2-2-2-|2-------------2------------|
D|4-4-4--4------4---4--4-4-4-|2-------------2------------|
A|4-4-4--4------4---4--4-4-4-|0-------------0------------|
E|2-2-2--2------2---2--2-2-2-|---------------------------|
  really got a  hold   on me)
e|------ ------ ------ ------|------ ------ ------ ------|
B|---------------------------|---------------------------|
G|---------------------------|---------------------------|
D|---------------------------|---------------------------|
A|---------------------------|--------------0------0-----|
E|---------------------------|----------------2-0----2-0-|



 (.
e|0----- ------ ------ ------|------ ------ ------ ------|
B|2--------------------------|---------------------------|
G|2--------------------------|---------------------------|
D|2--------------------------|---------------------------|
A|0--------------------------|---------------------------|
E|---------------------------|---------------------------|

e|------ ------ ------ ------|------ ------ ------ ------|
B|---------------------------|---------------------------|
G|2--------------------------|---------------------------|
D|2--------------------------|---------------------------|
A|0--------------------------|---------------------------|
E|---------------------------|---------------------------|





        B  Bend
        R  Release
        /  slide up
        \  slide down
        H  hammer-on
        P  pull-off
        ~  vibrato
        +  harmonic
        x  Mute note
        . - play note like a dot in standard notation
        ^ - ties two notes together
        (. Pause



    ------------------------------------------------------------

    THE BEATLES - I WANNA BE YOUR MAN (Lennon & McCartney) From
                  WITH THE BEATLES album. Released 22nd November 
                  1963.

    ------------------------------------------------------------

    Tabbed by:PJVillanueva





    I wanna be your lover baby,
    I wanna be your man,
    I wanna be your lover baby,
    I wanna be your man.

    Love you like no other baby,
    Like no other can.
    Love you like no other baby,
    Like no other can.

    I wanna be your man I wanna be your man
    I wanna be your man I wanna be your man

    Tell me that you love me baby
    Let me understand
    Tell me that you love me baby
    I wanna be your man

    I wanna be your lover baby,
    I wanna be your man,
    I wanna be your lover baby,
    I wanna be your man.

    I wanna be your man I wanna be your man
    I wanna be your man I wanna be your man
 
                SOLO

    I wanna be your lover baby,
    I wanna be your man,
    I wanna be your lover baby,
    I wanna be your man.

    Love you like no other baby,
    Like no other can.
    Love you like no other baby,
    Like no other can.

    I wanna be your man I wanna be your man
    I wanna be your man I wanna be your man

    I wanna be your man Oh
    I wanna be your man Come on
    I wanna be your man Wow wow!




                           
  e|------- ------- ------- -------|------- ------- ------- -------|
  B|-------------------------------|-------------------------------|
  G|-------------------------------|------------2B4----------------|
  D|-------------------------------|------------------------0------|
  A|-------------------------------|-------------------------------|
  E|-------------------------------|-------------------------------|




            E7
  e|------- ------- ------- -------|------- ------- ------- -------|
  B|--------5-------5---5----------|5-----------5-------5---5---5--|
  G|--------7-------7---7----------|7-----------7-------7---7---7--|
  D|--------6-------6---6----------|6-----------6-------6---6---6--|
  A|--------7-------7---7----------|7-----------7-------7---7---7--|
  E|-------------------------------|-------------------------------|

  e|------- ------- ------- -------|------- ------- ------- -------|
  B|-------------------------------|-------------------------------|
  G|-------------------------------|-------------------------------|
  D|2-------2-------0--------------|2-------2---0-----------2------|
  A|2-------2-------0--------------|2-------2---0-----------2------|
  E|0-------0-------0--------------|0-------0---0-----------0------|
    I       wanna   be      your    lover       baby




  e|------- ------- ------- -------|------- ------- ------- -------|
  B|--------5---5---5-------5------|5-------5---5-------5---5------|
  G|--------7---7---7-------7------|7-------7---7-------7---7------|
  D|--------6---6---6-------6------|6-------6---6-------6---6------|
  A|--------7---7---7-------7------|7-------7---7-------7---7------|
  E|-------------------------------|-------------------------------|

  e|------- ------- ------- -------|------- ------- ------- -------|
  B|-------------------------------|-------------------------------|
  G|-------------------------------|-------------------------------|
  D|--------2-------0-------2------|--------2---0-------0---2------|
  A|--------2-------0-------2------|--------2---0-------0---2------|
  E|--------0-------0-------0------|--------0---0-------0---0------|
    I       wanna   be  your    man




  e|------- ------- ------- -------|------- ------- ------- -------|
  B|--------5-------5--------------|5-----------5-------5---5------|
  G|--------7-------7--------------|7-----------7-------7---7------|
  D|--------6-------6--------------|6-----------6-------6---6------|
  A|--------7-------7--------------|7-----------7-------7---7------|
  E|-------------------------------|-------------------------------|

  e|------- ------- ------- -------|------- ------- ------- -------|
  B|-------------------------------|-------------------------------|
  G|-------------------------------|-------------------------------|
  D|--------2-------0--------------|2---2-------0-------0---2------|
  A|--------2-------0--------------|2---2-------0-------0---2------|
  E|--------0-------0--------------|0---0-------0-------0---0------|
    I       wanna   be      your    lover       baby




            B                       E7
  e|------- ------- ------- -------|------- ------- ------- -------|
  B|--------7-----------7---7------|5-------5---5---5---5---5------|
  G|--------8-----------8---8------|7-------7---7---7---7---7------|
  D|--------9-----------9---9------|6-------6---6---6---6---6------|
  A|--------8-----------9---9------|7-------7---7---7---7---7------|
  E|-------------------------------|-------------------------------|

  e|------- ------- ------- -------|------- ------- ------- -------|
  B|-------------------------------|-------------------------------|
  G|-------------------------------|-------------------------------|
  D|--------2-------0--------------|2-------2---0-------0----------|
  A|--------2-------0--------------|2-------2---0-------0----------|
  E|--------0-------0--------------|0-------0---0-------0----------|
    I       wanna   be  your    man



    00:11

  e|------- ------- ------- -------|------- ------- ------- -------|
  B|--------5-------5--------------|5-----------5-------5---5------|
  G|--------7-------7--------------|7-----------7-------7---7------|
  D|--------6-------6--------------|6-----------6-------6---6------|
  A|--------7-------7--------------|7-----------7-------7---7------|
  E|-------------------------------|-------------------------------|

  e|------- ------- ------- -------|------- ------- ------- -------|
  B|-------------------------------|-------------------------------|
  G|-------------------------------|-------------------------------|
  D|--------2-------0-------2------|--------2---0-------0---0------|
  A|--------2-------0-------2------|--------2---0-------0---0------|
  E|--------0-------0-------0------|--------0---0-------0---0------|
    Love    you     like    no      other       baby




  e|------- ------- ------- -------|------- ------- ------- -------|
  B|--------5---5---5-------5------|--------5-----------5---5------|
  G|--------7---7---7-------7------|--------7-----------7---7------|
  D|--------6---6---6-------6------|--------6-----------6---6------|
  A|--------7---7---7-------7------|--------7-----------7---7------|
  E|-------------------------------|-------------------------------|

  e|------- ------- ------- -------|------- ------- ------- -------|
  B|-------------------------------|-------------------------------|
  G|-------------------------------|-------------------------------|
  D|--------2-------0-------2------|--------2---0---0---0---0------|
  A|--------2-------0-------2------|--------2---0---0---0---0------|
  E|--------0-------0-------0------|--------0---0---0---0---0------|

  e|------- ------- ------- -------|------- ------- ------- -------|
  B|-------------------------------|-------------------------------|
  G|-------------------------------|------------2B3-----0----------|
  D|-------------------------------|------------------------2------|
  A|-------------------------------|-------------------------------|
  E|-------------------------------|-------------------------------|
    like    no      other       can




  e|------- ------- ------- -------|------- ------- ------- -------|
  B|--------5-------5---5----------|5-------5---5-----------5------|
  G|--------7-------7---7----------|7-------7---7-----------7------|
  D|--------6-------6---6----------|6-------6---6-----------6------|
  A|--------7-------7---7----------|7-------7---7-----------7------|
  E|-------------------------------|-------------------------------|

  e|------- ------- ------- -------|------- ------- ------- -------|
  B|-------------------------------|-------------------------------|
  G|-------------------------------|-------------------------------|
  D|2-------2-------0-------2------|2-------2---0------------------|
  A|2-------2-------0-------2------|2-------2---0------------------|
  E|0-------0-------0-------0------|0-------0---0------------------|
    Love    you     like    no      other       baby




  e|------- ------- ------- -------|------- ------- ------- -------|
  B|--------7-------7---7----------|--------5-----------5-------5--|
  G|--------8-------8---8----------|--------7-----------7-------7--|
  D|--------9-------9---9----------|--------6-----------6-------6--|
  A|--------9-------9---9----------|--------7-----------7-------7--|
  E|-------------------------------|-------------------------------|

  e|------- ------- ------- -------|------- ------- ------- -------|
  B|-------------------------------|-------------------------------|
  G|-------------------------------|-------------------------------|
  D|2---------------0--------------|2-------2-----------2----------|
  A|2---------------0--------------|2-------2-----------2----------|
  E|0---------------0--------------|0-------0-----------0----------|

  e|------- ------- ------- -------|------- ------- ------- -------|
  B|-------------------------------|-------------------------------|
  G|-------------------------------|-------------------------------|
  D|-------------------------------|-------------------------------|
  A/2--------------/2--------------|-------------------------------|
  E|-------------------------------|0---------------0--------------|
    like    no      other       can



                        x   X  X  X

  e|------- ------- ------- -------|
  B|5------------------------------|
  G|7------------------------------|
  D|6------------------------------|
  A|7------------------------------|
  E|-------------------------------|

  e|------- ------- ------- -------|
  B|-------------------------------|
  G|-------------------------------|
  D|2------------------------------|
  A|2------------------------------|
  E|0------------------------------|

  e|------- ------- ------- -------|
  B|-------------------------------|
  G|-------------------------------|
  D|-------------------------------|
  A|-------------------------------|
  E|0------------------------------|
        I   wanna   be  your    man


    X
    00:22
            F#m                 B
  e|------- 2------ ----2-- ----2--|------- 2------ 2---2-- -------|
  B|--------2-----------2-------4--|--------4-------4---4----------|
  G|--------2-----------2-------4--|--------4-------4---4----------|
  D|--------4-----------4-------4--|--------4-------4---4----------|
  A|--------4-----------4-------2--|--------2-------2---2----------|
  E|--------2-----------2----------|-------------------------------|

  e|------- ------- ------- -------|------- ------- ------- -------|
  B|--------7-------6---5-------4--|-------------------------------|
  G|-------------------------------|-------------------------------|
  D|-------------------------------|-------------------------------|
  A|--------9-------8---7-------6--|-------------------------------|
  E|-------------------------------|-------------------------------|
                                        I   wanna   be  your    man



            E                   Db7
  e|------- 0------ ----0-- -------|------- ------- ------- -------|
  B|--------0-----------0-------2--|--------2-------2---2----------|
  G|--------1-----------1-------4--|--------4-------4---4----------|
  D|--------2-----------2-------3--|--------3-------3---3----------|
  A|--------2-----------2-------4--|--------4-------4---4----------|
  E|--------0-----------0----------|-------------------------------|

  e|------- ------- ------- -------|------- ------- ------- -------|
  B|--------5-------4---3-------2--|-------------------------------|
  G|-------------------------------|-------------------------------|
  D|-------------------------------|-------------------------------|
  A|--------7-------6---5-------4--|-------------------------------|
  E|-------------------------------|-------------------------------|
                                        I   wanna   be  your    man



            F#m                 B
  e|------- 2------ ----2-- ----2--|------- 2------ ----2-- -------|
  B|--------2-----------2-------4--|--------4-----------4----------|
  G|--------2-----------2-------4--|--------4-----------4----------|
  D|--------4-----------4-------4--|--------4-----------4----------|
  A|--------4-----------4-------2--|--------2-----------2----------|
  E|--------2-----------2----------|-------------------------------|

  e|------- ------- ------- -------|------- ------- ------- -------|
  B|--------7-------6---5-------4--|-------------------------------|
  G|-------------------------------|-------------------------------|
  D|-------------------------------|-------------------------------|
  A|--------9-------8---7-------6--|-------------------------------|
  E|-------------------------------|-------------------------------|
                                        I   wanna   be  your   


   (.
    Em11
  e|0------ ------- ------- -------|------- ------- ------- -------|
  B|0------------------------------|-------------------------------|
  G|0------------------------------|-------------------------------|
  D|0------------------------------|-------------------------------|
  A|0------------------------------|-------------------------------|
  E|0------------------------------|-------------------------------|

  e|------- ------- ------- -------|------- ------- ------- -------|
  B|-------------------------------|-------------------------------|
  G|--------0----------------------|-------------------------------|
  D|--------0----------------------|-------------------------------|
  A|--------0----------------------|-------------------------------|
  E|--------0----------------------|-------------------------------|
    man



    00:31
    Tell me that you love me baby
    Let me understand
    Tell me that you love me baby
    I wanna be your man

    00:41
    I wanna be your lover baby,
    I wanna be your man,
    I wanna be your lover baby,
    I wanna be your man.

    00:52
    I wanna be your man I wanna be your man
    I wanna be your man I wanna be your man



    SOLO
    01:02

  e|------- ------- ------- -------|------- ------- ------- -------|
  B|-------------------------------|-------------------------------|
  G|--------2-------B--------------|2B3--------B4-R-2-P-0----------|
  D|-------------------------------|------------------------2------|
  A|-------------------------------|-------------------------------|
  E|-------------------------------|-------------------------------|


  e|------- ------- ------- -------|------- ------- ------- -------|
  B|-------------------------------|-------------------------------|
  G|------------0-----------2------|2-B-4-------2-------0----------|
  D|2------------------------------|------------------------2------|
  A|-------------------------------|-------------------------------|
  E|-------------------------------|-------------------------------|


  e|------- 4------ ----2-- -------|4------ ----7-- ------- 4------|
  B|--------5-----------3----------|5-----------8-----------5------|
  G|--------4-----------2----------|4-----------7-----------4------|
  D|-------------------------------|-------------------------------|
  A|-------------------------------|-------------------------------|
  E|-------------------------------|-------------------------------|


  e|------- 4------ ----2-- -------|4------ ----7-- ------- -------|
  B|--------5-----------3----------|5-----------8------------------|
  G|--------4-----------2----------|4-----------7------------------|
  D|-------------------------------|-------------------------------|
  A|-------------------------------|-------------------------------|
  E|-------------------------------|-------------------------------|


  e|------- 7-\-4-- ------- -------|4\2---- ----4-- ------- -------|
  B|--------8-\-5------------------|5\3---------5------------------|
  G|--------7-\-4------------------|4\2---------4------------------|
  D|-------------------------------|-------------------------------|
  A|-------------------------------|-------------------------------|
  E|-------------------------------|-------------------------------|


  e|------- 7-\-4-- ------- -------|2------ ----2-/ 4------ -------|
  B|--------8-\-5------------------|3-----------3-/-5--------------|
  G|--------7-\-4------------------|2-----------2-/-4--------------|
  D|-------------------------------|------------------------2------|
  A|-------------------------------|------------------------2------|
  E|-------------------------------|------------------------0------|



    01:16

  e|------- ------- ------- -------|------- ------- ------- -------| 
  B|--------5---5------------------|5-----------5-------5----------|
  G|--------7---7------------------|7-----------7-------7----------|
  D|--------6---6------------------|6-----------6-------6----------|
  A|--------7---7------------------|7-----------7-------7----------|
  E|-------------------------------|-------------------------------|

  e|------- ------- ------- -------|------- ------- ------- -------|
  B|-------------------------------|-------------------------------|
  G|-------------------------------|-------------------------------|
  D|-------------------------------|------------2-----------2------|
  A|-------------------------------|------------2-----------2------|
  E|-------------------------------|------------0-----------0------|
    I       wanna   be      your    lover       baby




  e|------- ------- ------- -------|------- ------- ------- -------|
  B|5-----------5------------------|5-----------5-------5----------|
  G|7-----------7------------------|7-----------7-------7----------|
  D|6-----------6------------------|6-----------6-------6----------|
  A|7-----------7------------------|7-----------7-------7----------|
  E|-------------------------------|-------------------------------|

  e|------- ------- ------- -------|------- ------- ------- -------|
  B|-------------------------------|-------------------------------|
  G|-------------------------------|-------------------------------|
  D|2-------2----------------------|2-----------0--------0---------|
  A|2-------2----------------------|2-----------0--------0---------|
  E|0-------0----------------------|0-----------0--------0---------|
    I       wanna   be  your    man




  e|------- ------- ------- -------|------- ------- ------- -------|
  B|--------5---5---5--------------|5-----------5-------5---5------|
  G|--------7---7---7--------------|7-----------7-------7---7------|
  D|--------6---6---6--------------|6-----------6-------6---6------|
  A|--------7---7---7--------------|7-----------7-------7---7------|
  E|-------------------------------|-------------------------------|
    I       wanna   be      your    lover       baby
  e|------- ------- ------- -------|------- ------- ------- -------|
  B|-------------------------------|-------------------------------|
  G|-------------------------------|-------------------------------|
  D|--------2-------0--------------|2-----------0-------0---0------|
  A|--------2-------0--------------|2-----------0-------0---0------|
  E|--------0-------0--------------|0-----------0-------0---0------|





  e|------- ------- ------- -------|------- ------- ------- -------|
  B|--------7-------7---7----------|5-------5---5-------5---5------|
  G|--------8-------8---8----------|7-------7---7-------7---7------|
  D|--------9-------9---9----------|6-------6---6-------6---6------|
  A|--------8-------9---9----------|7-------7---7-------7---7------|
  E|-------------------------------|-------------------------------|

  e|------- ------- ------- -------|------- ------- ------- -------|
  B|-------------------------------|-------------------------------|
  G|-------------------------------|-------------------------------|
  D|--------2-------0--------------|2-------2---0-------0---0------|
  A|--------2-------0--------------|2-------2---0-------0---0------|
  E|--------0-------0--------------|0-------0---0-------0---0------|
    I       wanna   be  your    man



    01:26

  e|------- ------- ------- -------|------- ------- ------- -------|
  B|--------5---5-----------5------|5-----------5-------5---5------|
  G|--------7---7-----------7------|7-----------7-------7---7------|
  D|--------6---6-----------6------|6-----------6-------6---6------|
  A|--------7---7-----------7------|7-----------7-------7---7------|
  E|-------------------------------|-------------------------------|

  e|------- ------- ------- -------|------- ------- ------- -------|
  B|-------------------------------|-------------------------------|
  G|-------------------------------|-------------------------------|
  D|--------2-------0--------------|2-----------0-------0---0------|
  A|--------2-------0--------------|2-----------0-------0---0------|
  E|--------0-------0--------------|0-----------0-------0---0------|
    Love    you     like    no      other       baby




  e|------- ------- ------- -------|------- ------- ------- -------|
  B|--------5---5---5-------5------|--------5---5-------5----------|
  G|--------7---7---7-------7------|--------7---7-------7----------|
  D|--------6---6---6-------6------|--------6---6-------6----------|
  A|--------7---7---7-------7------|--------7---7-------7----------|
  E|-------------------------------|-------------------------------|

  e|------- ------- ------- -------|------- ------- ------- -------|
  B|-------------------------------|-------------------------------|
  G|-------------------------------|-------------------------------|
  D|--------2-------0--------------|2-------2---0-------0---0------|
  A|--------2-------0--------------|2-------2---0-------0---0------|
  E|--------0-------0--------------|0-------0---0-------0---0------|
    like    no      other       can




  e|------- ------- ------- -------|------- ------- ------- -------| 
  B|5-------5---5---5--------------|5---5---------------5---5------|
  G|7-------7---7---7--------------|7---7---------------7---7------|
  D|6-------6---6---6--------------|6---6---------------6---6------|
  A|7-------7---7---7--------------|7---7---------------7---7------|
  E|-------------------------------|-------------------------------|

  e|------- ------- ------- -------|------- ------- ------- -------|
  B|-------------------------------|-------------------------------|
  G|-------------------------------|-------------------------------|
  D|--------2-------0--------------|2-----------0-------0---0------|
  A|--------2-------0--------------|2-----------0-------0---0------|
  E|--------0-------0--------------|0-----------0-------0---0------|
    Love    you     like    no      other       baby




  e|------- ------- ------- -------|------- ------- ------- -------|
  B|--------7-------7---7----------|5-------5-----------5---5---5--|
  G|--------8-------8---8----------|7-------7-----------7---7---7--|
  D|--------9-------9---9----------|6-------6-----------6---6---6--|
  A|--------9-------9---9----------|7-------7-----------7---7---7--|
  E|-------------------------------|-------------------------------|

  e|------- ------- ------- -------|------- ------- ------- -------|
  B|-------------------------------|-------------------------------|
  G|-------------------------------|-------------------------------|
  D|--------2-------0--------------|2---2-------0-------0---0------|
  A|--------2-------0--------------|2---2-------0-------0---0------|
  E|--------0-------0--------------|0---0-------0-------0---0------| 

  e|------- ------- ------- -------|------- ------- ------- -------|
  B|-------------------------------|-------------------------------|
  G|-------------------------------|--------2B3---------0----------|
  D|-------------------------------|------------------------2------|
  A|-------------------------------|-------------------------------|
  E|-------------------------------|-------------------------------|
    like    no      other       can




                        x   X  X  X

  e|------- ------- ------- -------|
  B|5------------------------------|
  G|7------------------------------|
  D|6------------------------------|
  A|7------------------------------|
  E|-------------------------------|

  e|------- ------- ------- -------|
  B|-------------------------------|
  G|-------------------------------|
  D|2------------------------------|
  A|2------------------------------|
  E|0------------------------------|

  e|------- ------- ------- -------|
  B|-------------------------------|
  G|-------------------------------|
  D|2------------------------------|
  A|-------------------------------|
  E|-------------------------------|
        I   wanna   be  your    man




    01:36

  e|2------ 2------ 2---2-- ----2--|------- 2------ 2---2-- -------|
  B|2-------2-------2---2-------4--|--------4-------4---4----------|
  G|2-------2-------2---2-------4--|--------4-------4---4----------|
  D|4-------4-------4---4-------4--|--------4-------4---4----------|
  A|4-------4-------4---4-------2--|--------2-------2---2----------|
  E|2-------2-------2---2----------|-------------------------------|

  e|------- ------- ------- -------|------- ------- ------- -------|
  B|--------7-------6---5-------4--|-------------------------------|
  G|-------------------------------|-------------------------------|
  D|-------------------------------|-------------------------------|
  A|--------9-------8---7-------6--|-------------------------------|
  E|-------------------------------|-------------------------------|
                                        I   wanna   be  your    man




  e|------- 0------ 0---0-- -------|------- ------- ------- -------|
  B|--------0-------0---0-------2--|--------2-------2---2----------|
  G|--------1-------1---1-------4--|--------4-------4---4----------|
  D|--------2-------2---2-------3--|--------3-------3---3----------|
  A|--------2-------2---2-------4--|--------4-------4---4----------|
  E|--------0-------0---0----------|-------------------------------|

  e|------- ------- ------- -------|------- ------- ------- -------|
  B|--------5-------4---3-------2--|-------------------------------|
  G|-------------------------------|-------------------------------|
  D|-------------------------------|-------------------------------|
  A|--------7-------6---5-------4--|-------------------------------|
  E|-------------------------------|-------------------------------|
                                        I   wanna   be  your    man




  e|2------ 2------ 2---2-- ----2--|------- 2------ 2---2-- -------|
  B|2-------2-------2---2-------4--|--------4-------4---4----------|
  G|2-------2-------2---2-------4--|--------4-------4---4----------|
  D|4-------4-------4---4-------4--|--------4-------4---4----------|
  A|4-------4-------4---4-------2--|--------2-------2---2----------|
  E|2-------2-------2---2----------|-------------------------------|

  e|------- ------- ------- -------|------- ------- ------- -------|
  B|------/-7-------6---5-------4--|-------------------------------|
  G|-------------------------------|-------------------------------|
  D|-------------------------------|-------------------------------|
  A|------/-9-------8---7-------6--|-------------------------------|
  E|-------------------------------|-------------------------------|
                                        I   wanna   be  your    


   (.

  e|0------ ------- ------- -------|------- ------- ------- -------|
  B|0------------------------------|-------------------------------|
  G|0------------------------------|-------------------------------|
  D|0------------------------------|-------------------------------|
  A|0------------------------------|-------------------------------|
  E|0------------------------------|-------------------------------|

  e|------- ------- ------- -------|------- ------- ------- -------|
  B|-------------------------------|-------------------------------|
  G|0------------------------------|-------------------------------|
  D|0------------------------------|-------------------------------|
  A|0------------------------------|-------------------------------|
  E|0------------------------------|-------------------------------|
    man



    01:46

  e|------- ------- ------- -------|------- ------- ------- -------|
  B|5-------5-------5---5---5------|5-------5---5-------5---5------|
  G|7-------7-------7---7---7------|7-------7---7-------7---7------|
  D|6-------6-------6---6---6------|6-------6---6-------6---6------|
  A|7-------7-------7---7---7------|7-------7---7-------7---7------|
  E|-------------------------------|-------------------------------|

  e|------- 4------ ----2-- -------|4------ ------- ------- -------|
  B|--------5-----------3----------|5------------------------------|
  G|--------4-----------2----------|4------------------------------|
  D|-------------------------------|-------------------------------|
  A|-------------------------------|-------------------------------|
  E|-------------------------------|-------------------------------|
                                        I   wanna   be  your    man




  e|------- ------- ------- -------|------- ------- ------- -------|
  B|5-------5---5-------5----------|5-----------5-------5---5------|
  G|7-------7---7-------7----------|7-----------7-------7---7------|
  D|6-------6---6-------6----------|6-----------6-------6---6------|
  A|7-------7---7-------7----------|7-----------7-------7---7------|
  E|-------------------------------|-------------------------------|

  e|------- 4------ ----2-- -------|4------ ----7-- ----4-- -------|
  B|--------5-----------3----------|5-----------8-------5----------|
  G|--------4-----------2----------|4-----------7-------4----------|
  D|-------------------------------|-------------------------------|
  A|-------------------------------|-------------------------------|
  E|-------------------------------|-------------------------------|
                                        I   wanna   be  your    man
                    Oh
    .......................... Fade out ...........................


  e|------- ------- ------- -------|------- ------- ------- -------|
  B|5-------5-----------5----------|5-----------5-------5---5------|
  G|7-------7-----------7----------|7-----------7-------7---7------|
  D|6-------6-----------6----------|6-----------6-------6---6------|
  A|7-------7-----------7----------|7-----------7-------7---7------|
  E|-------------------------------|-------------------------------|

  e|------- 4------ ----2-- -------|4------ ----7-- ----4-- -------|
  B|--------5-----------3----------|5-----------8-------5----------|
  G|--------4-----------2----------|4-----------7-------4----------|
  D|-------------------------------|-------------------------------|
  A|-------------------------------|-------------------------------|
  E|-------------------------------|-------------------------------|
                            Oh          I   wanna   be  your    man
                    Come 
                        on
    ...............................................................


  e|------- 5------ ----5-- -------|------- ------- ------- -------|
  B|--------5-----------5----------|-------------------------------|
  G|--------6-----------6----------|-------------------------------|
  D|--------7-----------7----------|-------------------------------|
  A|--------7-----------7----------|-------------------------------|
  E|--------5-----------5----------|-------------------------------|


  e|------- 4------ ----2-- -------|------- ------- ------- -------|
  B|--------5-----------3----------|-------------------------------|
  G|--------4-----------2----------|-------------------------------|
  D|-------------------------------|-------------------------------|
  A|-------------------------------|-------------------------------|
  E|-------------------------------|-------------------------------|
                Wow     wow!

    ...............................





        B  Bend
        R  Release
        /  Slide up
        \  Slide down
        H  Hammer-on
        P  Pull-off
        ~  Vibrato
        +  Harmonic
        x  Mute note
        .  Play note like a dot in standard notation
        ^  Ties two notes together
        (. Pause



  ----------------------------------------------------------------

  THE BEATLES - DEVIL IN HER HEART (Drapkin) From WITH THE BEATLES 
                album. Released on 22nd November 1963.

  ----------------------------------------------------------------

  Tabbed by:PJVillanueva






  She's got the devil in her heart
  But her eyes they tantalize
  She's gonna tear your heart apart
  Oh her lips are really thrilling

  I'll take my chances
  for romance is
  So important to me
  She'll never hurt me
  She won't desert me
  She's an angel sent to me

  She's got the devil in her heart
  No, no, this I can't believe
  She's gonna tear your heart apart
  No, no nay will she deceive

  I can't believe that she'll ever ever go
  Not when she hugs and says she loves me so
  She'll never hurt em
  She won't desert me
  Listen can't you see

  She's got the devil in her heart
  Oh, no, no, no, this I can't believe
  She's gonna tear your heart apart
  No no nay will she deceive

  Don't take chances if your romance is
  So important to you
  She'll never hurt me
  She won't desert me
  She's an angel sent to me

  She's got the devil in her heart
  Oh, no, no, no, no this I can't believe
  She's gonna tear your heart apart
  No, no nay will she deceive

  She's got the devil in her heart
  No she's an angel sent to me
  She's got the devil in her heart
  No she's an angel sent to me




                      x   X   X
                                  Am
e|------- ------- ------- -------|5------ ----5-- ------- 5------|
B|-------------------------------|5-----------5-----------5------|
G|-------------------------------|5-----------5-----------5------|
D|-------------------------------|7-----------7-----------7------|
A|-------------------------------|7-----------7-----------7------|
E|-------------------------------|5-----------5-----------5------|

e|------- ------- ------- -------|------8 -----7- -5----- -----3-|
B|-------------------------------|----10------8---7-----------5--|
G|-------------------------------|-------------------------------|
D|-------------------------------|-------------------------------|
A|-------------------------------|-------------------------------|
E|-------------------------------|-------------------------------|



  D                               G
e|5------ 5------ 5------ 5------|3------ 3------ 3------ 3------|
B|7-------7-------7-------7------|3-------3-------3-------3------|
G|7-------7-------7-------7------|4-------4-------4-------4------|
D|7-------7-------7-------7------|5-------5-------5-------5------|
A|5-------5-------5-------5------|5-------5-------5-------5------|
E|-------------------------------|3-------3-------3-------3------|

e|-5-----5-----3- -2----0--------|------- ------- ------- -------|
B|7-----7-----5---3----1-------3-|--------3---5---3---3---2---1--|
G|----------------------------4--|-------4---5---4---4---3---2---|
D|-------------------------------|-------------------------------|
A|-------------------------------|-------------------------------|
E|-------------------------------|-------------------------------|



                                  Am
e|3------ ------- ------- -------|5------ ----5-- ------- 5------|
B|3------------------------------|5-----------5-----------5------|
G|4------------------------------|5-----------5-----------5------|
D|5------------------------------|7-----------7-----------7------|
A|5------------------------------|7-----------7-----------7------|
E|3------------------------------|5-----------5-----------5------|
       She's got the devil in her heart
e|------- ------- ------- -------|------- ------- ------- -------|
B|-0-----------------------------|-------------------------------|
G|0------------------------------|-------------------------------|
D|-------------------------------|-------------------------------|
A|-------------------------------|-------------------------------|
E|-------------------------------|-------------------------------|



  D7                              G         Gsus4 G           Gsus4
e|------- ------- ------- -------|------- ------- ------- -------|
B|3-----------3-----------3------|3-----------3---3-------3---3--|
G|5-----------5-----------5------|4-----------5---4-------4---5--|
D|4-----------4-----------4------|5-----------5---5-------5---5--|
A|5-----------5-----------5------|5---------------5--------------|
E|-------------------------------|-------------------------------|
      But     her eyes they tantalize


  G                               Am
e|3------ ----3-- ------- 3------|5------ ----5-- ------- 5------|
B|3-----------3-----------3------|5-----------5-----------5------|
G|4-----------4-----------4------|5-----------5-----------5------|
D|5-----------5-----------5------|7-----------7-----------7------|
A|5-----------5-----------5------|7-----------7-----------7------|
E|3-----------3-----------3------|5-----------5-----------5------|
    She's gonna tear your heart apart


  D7                              G           C   G           C
e|------- ------- ------- -------|------- ------- ------- -------|
B|3-----------3-----------3------|3-----3-3---5---3-------3---5--|
G|5-----------5-----------5------|4-----4-4---5---4-------4---5--|
D|4-----------4-----------4------|5-----5-5---5---5-------5---5--|
A|5-----------5-----------5------|5---------------5-------5------|
E|-------------------------------|-------------------------------|
      Oh     her  lips they really thrill     me


  G
e|3------ ----3-- ------- 3------|
B|3-----------3-----------3------|
G|4-----------4-----------4------|
D|5-----------5-----------5------|
A|5-----------5-----------5------|
E|3-----------3-----------3------|

e|------- ------- ------- -------|
B|--------0---0---1---1---3---3--|
G|--------0---0---2---2---4---4--|
D|-------------------------------|
A|-------------------------------|
E|-------------------------------|



  C                               Cm
e|3------ ----3-- ------- 3------|3------ ----3-- 3------ 3------|
B|5-----------5-----------5------|4-----------4---4-------4------|
G|5-----------5-----------5------|5-----------5---5-------5------|
D|5-----------5-----------5------|5-----------5---5-------5------|
A|3-----------3-----------3------|3-----------3---3-------3------|
E|-------------------------------|-------------------------------|
     I'll take my chances                for romance      is


  G
e|3------ ----3-- ------- 3------|3------ ----3-- ------- 3------|
B|3-----------3-----------3------|3-----------3-----------3------|
G|4-----------4-----------4------|4-----------4-----------4------|
D|5-----------5-----------5------|5-----------5-----------5------|
A|5-----------5-----------5------|5-----------5-----------5------|
E|3-----------3-----------3------|3-----------3-----------3------|
          So important    to      me
e|------- ------- ------- -------|------- ------- ------- -------|
B|-------------------------------|--------0---0---1---1---3---3--|
G|-------------------------------|--------0---0---2---2---4---4--|
D|-------------------------------|-------------------------------|
A|-------------------------------|-------------------------------|
E|-------------------------------|-------------------------------|


  C                               Cm
e|3------ 3------ 3------ 3------|3------ ----3-- 3------ 3------|
B|5-------5-------5-------5------|4-----------4---4-------4------|
G|5-------5-------5-------5------|5-----------5---5-------5------|
D|5-------5-------5-------5------|5-----------5---5-------5------|
A|3-------3-------3-------3------|3-----------3---3-------3------|
E|-------------------------------|-------------------------------|
    She'll never  hurt    me          She won't desert    me


  A                               D7
e|5------ ----5-- 5------ 5------|------- ------- ------- -------|
B|5-----------5---5-------5------|3-----------3-----------3---3--|
G|6-----------6---6-------6------|5-----------5-----------5---5--|
D|7-----------7---7-------7------|4-----------4-----------4---4--|
A|7-----------7---7-------7------|5-----------5-----------5---5--|
E|5-----------5---5-------5------|-------------------------------|
          She's an angel  sent to me

                                  Am
e|------- ------- ------- -------|5------ ----5-- ------- 5------|
B|3------------------------------|5-----------5-----------5------|
G|5------------------------------|5-----------5-----------5------|
D|4------------------------------|7-----------7-----------7------|
A|5------------------------------|7-----------7-----------7------|
E|-------------------------------|5-----------5-----------5------|
     She's got the devil  in her  heart

  D7                              G           C   G           C       
e|------- ------- ------- -------|------- ------- ------- -------|
B|3-----------3-----------3------|3-----3-3---5---3-------3---5--|
G|5-----------5-----------5------|4-----4-4---5---4-------4---5--|
D|4-----------4-----------4------|5-----5-5---5---5-------5---5--|
A|5-----------5-----------5------|5---------------5-------5------|
E|-------------------------------|-------------------------------|
      No,     no, this I  can't believe


  G                               Am
e|3------ ----3-- ------- 3------|5------ ----5-- ----5-- 5------|
B|3-----------3-----------3------|5-----------5-------5---5------|
G|4-----------4-----------4------|5-----------5-------5---5------|
D|5-----------5-----------5------|7-----------7-------7---7------|
A|5-----------5-----------5------|7-----------7-------7---7------|
E|3-----------3-----------3------|5-----------5-------5---5------|
    She's gonna tear your  heart apart


  D7                              G           C   G           C
e|------- ------- ------- -------|------- ------- ------- -------|
B|3-----------3-----------3------|3-----3-3---5---3-------3---5--|
G|5-----------5-----------5------|4-----4-4---5---4-------4---5--|
D|4-----------4-----------4------|5-----5-5---5---5-------5---5--|
A|5-----------5-----------5------|5---------------5--------------|
E|-------------------------------|-------------------------------|
      No,     no  nay will she deceive



  G
e|3------ ----3-- ------- 3------|
B|3-----------3-----------3------|
G|4-----------4-----------4------|
D|5-----------5-----------5------|
A|5-----------5-----------5------|
E|3-----------3-----------3------|

e|------- ------- ------- -------|
B|--------0---0---1---1---3---3--|
G|--------0---0---2---2---4---4--|
D|-------------------------------|
A|-------------------------------|
E|-------------------------------|



  C                               Cm
e|3------ ----3-- ----3-- 3------|3------ ----3-- 3------ 3---3--|
B|5-----------5-------5---5------|4-----------4---4-------4---4--|
G|5-----------5-------5---5------|5-----------5---5-------5---5--|
D|5-----------5-------5---5------|5-----------5---5-------5---5--|
A|3-----------3-------3---3------|3-----------3---3-------3---3--|
E|-------------------------------|-------------------------------|
      I  can't believe   that she'll ever ever go


  G        
e|3------ ----3-- ------- 3------|3------ 3---3-- ------- 3------|
B|3-----------3-----------3------|3-------3---3-----------3------|
G|4-----------4-----------4------|4-------4---4-----------4------|
D|5-----------5-----------5------|5-------5---5-----------5------|
A|5-----------5-----------5------|5-------5---5-----------5------|
E|3-----------3-----------3------|3-------3---3-----------3------|
      Not when she hugs       and says she loves me so


  C                               Cm
e|3------ 3---3-- ------- 3------|3------ 3------ ------- 3------|
B|5-------5---5-----------5------|4-------4---------------4------|
G|5-------5---5-----------5------|5-------5---------------5------|
D|5-------5---5-----------5------|5-------5---------------5------|
A|3-------3---3-----------3------|3-------3---------------3------|
E|-------------------------------|-------------------------------|
      She'll never hurt   me          She won't desert    me


  A                               D7
e|5------ 5------ 5------ 5------|------- ------- ------- -------|
B|5-------5-------5-------5------|3-------3---3-------3---3------|
G|6-------6-------6-------6------|5-------5---5-------5---5------|
D|7-------7-------7-------7------|4-------4---4-------4---4------|
A|7-------7-------7-------7------|5-------5---5-------5---5------|
E|5-------5-------5-------5------|-------------------------------|
          Listen, can't   you     see

                                  Am
e|------- ------- ------- -------|5------ ----5-- ------- 5------|
B|3------------------------------|5-----------5-----------5------|
G|5------------------------------|6-----------6-----------6------|
D|4------------------------------|7-----------7-----------7------|
A|5------------------------------|7-----------7-----------7------|
E|-------------------------------|5-----------5-----------5------|
    She's got the devil   in her  heart

  D7                              G           C   G           C
e|------- ------- ------- -------|------- ------- ------- -------|
B|3-----------3-----------3------|3-----3-3---5---3-------3---5--|
G|5-----------5-----------5------|4-----4-4---5---4-------4---5--|
D|4-----------4-----------4------|5-----5-5---5---5-------5---5--|
A|5-----------5-----------5------|5---------------5--------------|
E|-------------------------------|-------------------------------|
     Oh, no, no,  this I  can't believe


  G                               Am
e|3------ 3------ 3------ 3------|5------ ----5-- ------- 5------|
B|3-------3-------3-------3------|5-----------5-----------5------|
G|4-------4-------4-------4------|5-----------5-----------5------|
D|5-------5-------5-------5------|7-----------7-----------7------|
A|5-------5-------5-------5------|7-----------7-----------7------|
E|3-------3-------3-------3------|5-----------5-----------5------|
    She's gonna tear your heart apart


  D7                              G           C   G           C
e|------- ------- ------- -------|------- ------- ------- -------|
B|3-----------3-------3---3------|3-----3-3---5---3-------3---5--|
G|5-----------5-------5---5------|4-----4-4---5---4-------4---5--|
D|4-----------4-------4---4------|5-----5-5---5---5-------5---5--|
A|5-----------5-------5---5------|5-----5-5-------5--------------|
E|-------------------------------|-------------------------------|
     No      no   nay will she deceive


  G
e|------- ------- ------- -------|
B|3-----3-3---3-------3---3------|
G|4-----4-4---4-------4---4------|
D|5-----5-5---5-------5---5------|
A|5------------------------------|
E|-------------------------------|



  C                               Cm
e|3------ 3------ 3------ 3------|3------ 3------ 3------ 3------|
B|5-------5-------5-------5------|4-------4-------4-------4------|
G|5-------5-------5-------5------|5-------5-------5-------5------|
D|5-------5-------5-------5------|5-------5-------5-------5------|
A|3-------3-------3-------3------|3-------3-------3-------3------|
E|-------------------------------|-------------------------------|
          Don't take chances          if  your romance    is


  G        
e|3------ ----3-- ------- 3------|3------ ----3-- ------- 3------|
B|3-----------3-----------3------|3-----------3-----------3------|
G|4-----------4-----------4------|4-----------4-----------4------|
D|5-----------5-----------5------|5-----------5-----------5------|
A|5-----------5-----------5------|5-----------5-----------5------|
E|3-----------3-----------3------|3-----------3-----------3------|
          So important    to      you
e|------- ------- ------- -------|------- ------- ------- -------|
B|-------------------------------|--------0---0---1---1---3---3--|
G|-------------------------------|--------0---0---2---2---4---4--|
D|-------------------------------|-------------------------------|
A|-------------------------------|-------------------------------|
E|-------------------------------|-------------------------------|



  C                               Cm
e|3------ ----3-- 3------ 3------|3------ ----3-- 3------ 3------|
B|5-----------5---5-------5------|4-----------4---4-------4------|
G|5-----------5---5-------5------|5-----------5---5-------5------|
D|5-----------5---5-------5------|5-----------5---5-------5------|
A|3-----------3---3-------3------|3-----------3---3-------3------|
E|-------------------------------|-------------------------------|
     She'll never hurt    me          She won't desert    me


  A                               D7
e|5------ 5------ 5------ 5------|------- ------- ------- -------|
B|5-------5-------5-------5------|3-----------3-----------3---3--|
G|6-------6-------6-------6------|5-----------5-----------5---5--|
D|7-------7-------7-------7------|4-----------4-----------4---4--|
A|7-------7-------7-------7------|5-----------5-----------5---5--|
E|5-------5-------5-------5------|-------------------------------|
         She's an angel   sent to me

                                  Am
e|------- ------- ------- -------|5------ ----5-- ------- 5------|
B|3------------------------------|5-----------5-----------5------|
G|5------------------------------|6-----------6-----------6------|
D|4------------------------------|7-----------7-----------7------|
A|5------------------------------|7-----------7-----------7------|
E|-------------------------------|5-----------5-----------5------|
    She's got the devil   in her  heart            No,    no, 

  D7                              G           C   G           C
e|------- ------- ------- -------|------- ------- ------- -------|
B|3-----------3-------3---3------|3-----3-3---5---3-------3---5--|
G|5-----------5-------5---5------|4-----4-4---5---4-------4---5--|
D|4-----------4-------4---4------|5-----5-5---5---5-------5---5--|
A|5-----------5-------5---5------|5---------------5--------------|
E|-------------------------------|-------------------------------|
  no,         no  this  I can't believe


  G                               Am
e|------- ------- ------- -------|5------ 5---5-- ----5-- 5------|
B|3---3---3-------3---3---3------|5-------5---5-------5---5------|
G|4---4---4-------4---4---4------|5-------5---5-------5---5------|
D|5---5---5-------5---5---5------|7-------7---7-------7---7------|
A|5---5---5-------5---5---5------|7-------7---7-------7---7------|
E|-------------------------------|5-------5---5-------5---5------|
   She's gonna  tear your heart apart


  D7                              G           C   G           C
e|------- ------- ------- -------|------- ------- ------- -------|
B|3-----------3-------3---3------|3-----3-3---5---3-------3---5--|
G|5-----------5-------5---5------|4-----4-4---5---4-------4---5--|
D|4-----------4-------4---4------|5-----5-5---5---5-------5---5--|
A|5-----------5-------5---5------|5---------------5--------------|
E|-------------------------------|-------------------------------|
     No,      no  nay will she deceive



  G                               Am
e|3---3-- 3------ 3------ 3------|5------ ----5-- ------- 5------|
B|3---3---3-------3-------3------|5-----------5-----------5------|
G|4---4---4-------4-------4------|5-----------5-----------5------|
D|5---5---5-------5-------5------|7-----------7-----------7------|
A|5---5---5-------5-------5------|7-----------7-----------7------|
E|3---3---3-------3-------3------|5-----------5-----------5------|
    She's got the devil   in her  heart
e|-----8- ------- ------- -------|-----8- ----7-- 5------ ----3--|
B|----10-------------------------|----10------8---7-----------5--|
G|-------------------------------|-------------------------------|
D|-------------------------------|-------------------------------|
A|-------------------------------|-------------------------------|
E|-------------------------------|-------------------------------|



  D7                              G
e|------- ------- ------- -------|3------ ----3-- 3------ 3---3--|
B|3-----------3-----------3------|3-----------3---3-------3---3--|
G|5-----------5-----------5------|4-----------4---4-------4---4--|
D|4-----------4-----------4------|5-----------5---5-------5---5--|
A|5-----------5-----------5------|5-----------5---5-------5---5--|
E|-------------------------------|3-----------3---5-------3---3--|
       No she's an angel  sent to me

e|5---5-- ----3-- 2---0-- -------|------- ------- ------- -------|
B|7---7-------5---3---1-------3--|------------5----3--3---2---1--|
G|----------------------------4--|------------5----4--4---3---2--|
D|-------------------------------|-------------------------------|
A|-------------------------------|-------------------------------|
E|-------------------------------|-------------------------------|



                                  Am
e|3------ ----3-- ------- 3------|5------ ----5-- ------- 5------|
B|3-----------3-----------3------|5-----------5-----------5------|
G|4-----------4-----------4------|5-----------5-----------5------|
D|5-----------5-----------5------|7-----------7-----------7------|
A|5-----------5-----------5------|7-----------7-----------7------|
E|3-----------3-----------3------|5-----------5-----------5------|
    She's got the devil   in her  heart
e|----5-- ----5-- 4---4-- ----4--|-----8- ----7-- 5------ ----3-/|
B|0---7-------7---6---6-------6--|----10------8---7-----------5-/|
G|0------------------------------|-------------------------------|
D|-------------------------------|-------------------------------|
A|-------------------------------|-------------------------------|
E|-------------------------------|-------------------------------|



  D7                              G
e|------- ------- ------- -------|3------ ----3-- ------- 3---3--|
B|3-----------3-----------3------|3-----------3-----------3---3--|
G|5-----------5-----------5------|4-----------4-----------4---4--|
D|4-----------4-----------4------|5-----------5-----------5---5--|
A|5-----------5-----------5------|5-----------5-----------5---5--|
E|-------------------------------|3-----------3-----------3---3--|
      No she's an angel   sent to me
e|5---5-- ----3-- 2---0-- -------|------- ------- ------- -------|
B|7---7-------5---3---1-------3--|--------3---5----3--3---2---1--|
G|----------------------------4--|--------4---5----4--4---3---2--|
D|-------------------------------|-------------------------------|
A|-------------------------------|-------------------------------|
E|-------------------------------|-------------------------------|


                   (.

e|3------ ------- -3----- -------|------- ------- ------- -------|
B|3----------------3-------------|-------------------------------|
G|4----------------4-------------|-------------------------------|
D|5----------------5-------------|-------------------------------|
A|5----------------5-------------|-------------------------------|
E|3----------------3-------------|-------------------------------|
                  G6/9
e|------- ------- 10----- -------|------- ------- ------- -------|
B|----------------10-------------|-------------------------------|
G|-----------------9-------------|-------------------------------|
D|-----------------9-------------|-------------------------------|
A|----------------10-------------|-------------------------------|
E|-------------------------------|-------------------------------






        B  Bend
        R  Release
        /  slide up
        \  slide down
        H  hammer-on
        P  pull-off
        ~  vibrato
        +  harmonic
        x  Mute note
        . - play note like a dot in standard notation
        ^ - ties two notes together
        (. Pause



  ------------------------------------------------------------------

  THE BEATLES - NOT A SECOND TIME (Lennon & McCartney) From WITH THE 
                BEATLES album. Released on 22nd November 1963

  ------------------------------------------------------------------

  Tabbed by:PJVillanueva





  You know you made me cry,
  I see no use in wond'ring why,
  I cried for you.

  And now, you've changed your mind,
  I see no reason to change mine,
  I cried, it's through, oh.

  You're giving me the same old line,
  I'm wond'ring why,
  You hurt me then, you're back again,
  No, no, no, not a second time.



                                     
  G                               Em
e|3------ 3------ ------- 3------|0------ 0-0-0-0 0------ 0------|
B|3-------3---------------3------|0-------0-0-0-0-0-------0------|
G|0-------0---------------0------|0-------0-0-0-0-0-------0------|
D|0-------0---------------0------|2-------2-2-2-2-2-------2------|
A|2-------2---------------2------|2-------2-2-2-2-2-------2------|
E|3-------3---------------3------|0-------0-0-0-0-0-------0------|
          You     know you made me cry,
e|------- ------- ------- -------|------- ------- ------- -------|
B|-------------------------------|-------------------------------|
G|-------------------------------|-------------------------------|
D|5-----------5---5--------------|2------------2--2--------------|
A|5-----------5---5--------------|2------------2--2--------------|
E|3-----------3---3--------------|0------------0--0--------------|
      


  G                               Em      
e|3------ 3---3-- 3------ 3------|0------ 0---0-- 0------ 0------|
B|3-------3---3---3-------3------|0-------0---0---0-------0------|
G|0-------0---0---0-------0------|0-------0---0---0-------0------|
D|0-------0---0---0-------0------|2-------2---2---2-------2------|
A|2-------2---2---2-------2------|2-------2---2---2-------2------|
E|3-------3---3---3-------3------|0-------0---0---0-------0------|
      I   see no  use in  wond'ring why,                  I
e|------- ------- ------- -------|------- ------- ------- -------|
B|-------------------------------|-------------------------------|
G|-------------------------------|-------------------------------|
D|5-----------5---5--------------|2------------2--2--------------|
A|5-----------5---5--------------|2------------2--2--------------|
E|3-----------3---3--------------|0------------0--0--------------|



  D                               G
e|2------ 2---2-- 2------ 2------|3------ 3---3-- ------- 3------|
B|3-------3---3---3-------3------|3-------3---3-----------3------|
G|2-------2---2---2-------2------|0-------0---0-----------0------|
D|0-------0---0---0-------0------|0-------0---0-----------0------|
A|-------------------------------|2-------2---2-----------2------|
E|-------------------------------|3-------3---3-----------3------|
  cried                   for     you
e|------- ------- ------- -------|------- ------- ------- -------|
B|-------------------------------|-------------------------------|
G|7-----------7---7--------------|-------------------------------|
D|7-----------7---7--------------|5-----------5---5--------------|
A|5-----------5---5--------------|5-----------5---5--------------|
E|-------------------------------|3-----------3---3--------------|



  D
e|------- 2------ ----2-- 2------|
B|--------3-----------3---3------|
G|--------2-----------2---2------|
D|--------0-----------0---0------|
A|-------------------------------|
E|-------------------------------|

e|------- ------- ------- -------|
B|-------------------------------|
G|7-----------7---7--------------|
D|7-----------7---7--------------|
A|5-----------5---5--------------|
E|-------------------------------|



  G                               Em
e|3------ 3------ ------- 3------|0------ 0-0-0-0 0------ 0------|
B|3-------3---------------3------|0-------0-0-0-0-0-------0------|
G|0-------0---------------0------|0-------0-0-0-0-0-------0------|
D|0-------0---------------0------|2-------2-2-2-2-2-------2------|
A|2-------2---------------2------|2-------2-2-2-2-2-------2------|
E|3-------3---------------3------|0-------0-0-0-0-0-------0------|
          And  now, you've changed your mind,
e|------- ------- ------- -------|------- ------- ------- -------|
B|-------------------------------|-------------------------------|
G|-------------------------------|-------------------------------|
D|5-----------5---5--------------|2-----------2-2-2--------------|
A|5-----------5---5--------------|2-----------2-2-2--------------|
E|3-----------3---3--------------|0-----------0-0-0--------------|
      


  G                               Em
e|3------ 3---3-- 3------ 3------|0------ 0---0-- 0------ 0------|
B|3-------3---3---3-------3------|0-------0---0---0-------0------|
G|0-------0---0---0-------0------|0-------0---0---0-------0------|
D|0-------0---0---0-------0------|2-------2---2---2-------2------|
A|2-------2---2---2-------2------|2-------2---2---2-------2------|
E|3-------3---3---3-------3------|0-------0---0---0-------0------|
      I   see no  reason  to change mine,                 my
e|------- ------- ------- -------|------- ------- ------- -------|
B|-------------------------------|-------------------------------|
G|-------------------------------|-------------------------------|
D|5-----------5---5--------------|2------------2--2--------------|
A|5-----------5---5--------------|2------------2--2--------------|
E|3-----------3---3--------------|0------------0--0--------------|



  D                               Am
e|2------ 2---2-- 2------ 2------|0------ 0---0-- ------- 0------|
B|3-------3---3---3-------3------|1-------1---1-----------1------|
G|2-------2---2---2-------2------|2-------2---2-----------2------|
D|0-------0---0---0-------0------|2-------2---2-----------2------|
A|-------------------------------|0-------0---0-----------0------|
E|-------------------------------|-------------------------------|
  cry                     is      through
e|------- ------- ------- -------|------- ------- ------- -------|
B|-------------------------------|-------------------------------|
G|7-----------7---7--------------|-------------------------------|
D|7-----------7---7--------------|7-----------7---7--------------|
A|5-----------5---5--------------|7-----------7---7--------------|
E|-------------------------------|5-----------5---5--------------|



  D
e|2------ 2------ ----2-- 2------|
B|3-------3-----------3---3------|
G|2-------2-----------2---2------|
D|0-------0-----------0---0------|
A|-------------------------------|
E|-------------------------------|
  Oh
e|------- ------- ------- -------|
B|-------------------------------|
G|7-----------7---7--------------|
D|7-----------7---7--------------|
A|5-----------5---5--------------|
E|-------------------------------|



  Am                              Bm
e|0------ 0---0-- ------- 0------|2------ 2---2-- ------- 2------|
B|1-------1---1-----------1------|3-------3---3-----------3------|
G|2-------2---2-----------2------|4-------4---4-----------4------|
D|2-------2---2-----------2------|4-------4---4-----------4------|
A|0-------0---0-----------0------|2-------2---2-----------2------|
E|-------------------------------|-------------------------------|
          You're  giving  me the  same old   line,
e|------- ------- ------- -------|------- ------- ------- -------|
B|-------------------------------|-------------------------------|
G|-------------------------------|-------------------------------|
D|7-----------7---7--------------|9-----------9---9--------------|
A|7-----------7---7--------------|9-----------9---9--------------|
E|5-----------5---5--------------|7-----------7---7--------------|



  G                               Em
e|3------ 3---3-- ------- 3------|0------ 0---0-- ------- 0------|
B|3-------3---3-----------3------|0-------0---0-----------0------|
G|0-------0---0-----------0------|0-------0---0-----------0------|
D|0-------0---0-----------0------|2-------2---2-----------2------|
A|2-------2---2-----------2------|2-------2---2-----------2------|
E|3-------3---3-----------3------|0-------0---0-----------0------|
          I'm     wond'ring       why,
e|------- ------- ------- -------|------- ------- ------- -------|
B|-------------------------------|-------------------------------|
G|-------------------------------|-------------------------------|
D|5-----------5---5--------------|2-----------2---2--------------|
A|5-----------5---5--------------|2-----------2---2--------------|
E|3-----------3---3--------------|0-----------0---0--------------|



  Am                    
e|0------ 0------ ------- 0------|------- 0------ ------- 0------|
B|1-------1---------------1------|--------1---------------1------|
G|2-------2---------------2------|--------2---------------2------|
D|2-------2---------------2------|--------2---------------2------|
A|0-------0---------------0------|--------0---------------0------|
E|-------------------------------|-------------------------------|
              You hurt me then,             you're back again,
e|------- ------- ------- -------|------- ------- ------- -------|
B|-------------------------------|7------------------------------|
G|-------------------------------|5------------------------------|
D|7-----------7---7--------------|7-----------7---7--------------|
A|7-----------7---7--------------|7-----------7---7--------------|
E|5-----------5---5--------------|5-----------5---5--------------|



  Bm                              D
e|2------ 2---2-- ------- 2------|2------ 2---2-- ------- 2------|
B|3-------3---3-----------3------|3-------3---3-----------3------|
G|4-------4---4-----------4------|2-------2---2-----------2------|
D|4-------4---4-----------4------|4-------4---4-----------4------|
A|2-------2---2-----------2------|5-------5---5-----------5------|
E|-------------------------------|-------------------------------|
  No,                     no,     no,             Not a   second 
e|------- ------- ------- -------|------- ------- ------- -------|
B|-------------------------------|-------------------------------|
G|-------------------------------|7-----------7---7--------------|
D|9-----------9---9--------------|7-----------7---7--------------|
A|9-----------9---9--------------|5-----------5---5--------------|
E|7-----------7---7--------------|-------------------------------|



  Em
e|0------ 0---0-- ------- 0------|0------ ------- ------- -------|
B|0-------0---0-----------0------|0------------------------------|
G|0-------0---0-----------0------|0------------------------------|
D|2-------2---2-----------2------|2------------------------------|
A|2-------2---2-----------2------|2------------------------------|
E|0-------0---0-----------0------|0------------------------------|
  time
e|------- ------- ------- -------|------- ------- ------- -------|
B|-------------------------------|-------------------------------|
G|--------------------0----------|-------------------------------|
D|2-----------0---2-------2---0--|2------------------------------|
A|2-----------2---2-------2------|2------------------------------|
E|0---------------0--------------|0------------------------------|



  Am                              Bm
e|------- 0---0-- ----0-- 0------|------- 2---2-- ----2-- 2------|
B|--------1---1-------1---1------|--------3---3-------3---3------|
G|--------2---2-------2---2------|--------4---4-------4---4------|
D|--------2---2-------2---2------|--------4---4-------4---4------|
A|--------0---0-------0---0------|--------2---2-------2---2------|
E|-------------------------------|-------------------------------|

e|------- ------- ------- -------|------- ------- ------- -------|
B|-------------------------------|-------------------------------|
G|-------------------------------|-------------------------------|
D|--------0----------------------|-------------------------------|
A|----------------3---2---0------|2-------3---0---2--------------|
E|----------------------------3--|-------------------------------|



  G                               Em
e|------- 3---3-- ------- 3------|------- 0------ ----0-- 0---0--|
B|--------3---3-----------3------|--------0-----------0---0---0--|
G|--------0---0-----------0------|--------0-----------0---0---0--|
D|--------0---0-----------0------|--------2-----------2---2---2--|
A|--------2---2-----------2------|--------2-----------2---2---2--|
E|--------3---3-----------3------|--------0-----------0---0---0--|

e|------- ------- ------- -------|------- ------- ------- -------|
B|-------------------------------|-------------------------------|
G|----------------0--------------|-------------------------------|
D|--------2-------------------2--|-------------------------------|
A|-------------------------------|2------------------------------|
E|-------------------------------|-------------------------------|



  Am
e|------- 0------ ------- 0------|------- 0---0-- ------- 0------|
B|--------1---------------1------|--------1---1-----------1------|
G|--------2---------------2------|--------2---2-----------2------|
D|--------2---------------2------|--------2---2-----------2------|
A|-------------------------------|-------------------------------|
E|-------------------------------|-------------------------------|

e|------- ------- ------- -------|------- ------- ------- -------|
B|-------------------------------|-------------------------------|
G|-------------------------------|-------------------------------|
D|--------0----------------------|--------0----------------------|
A|----------------3---2---0------|----------------3---2---0------|
E|-------------------------------|-------------------------------|



  Bm                              D
e|------- 2---2-- ----2-- -------|------- 2------ 2---2-- 2---2--|
B|--------3---3-------3----------|--------3-------3---3---3---3--|
G|--------4---4-------4----------|--------2-------2---2---2---2--|
D|--------4---4-------4----------|--------4-------4---4---4---4--|
A|--------2---2-------2----------|--------5-------5---5---5---5--|
E|-------------------------------|-------------------------------|

e|------- ------- ------- -------|------- ------- ------- -------|
B|-------------------------------|-------------------------------|
G|-------------------------------|-------------------------------|
D|4-----------------------0------|-------------------------------|
A|-------------------------------|3---------------------------0--|
E|-------------------------------|----------------2---2---3------|



  Em
e|------- 0------ ----0-- 0------|------- ------- ------- -------|
B|--------0-----------0---0------|-------------------------------|
G|--------0-----------0---0------|-------------------------------|
D|--------2-----------2---2------|-------------------------------|
A|--------2-----------2---2------|-------------------------------|
E|--------0-----------0---0------|-------------------------------|

e|------- ------- ------- -------|------- ------- ------- -------|
B|-------------------------------|-------------------------------|
G|-------------------------------|-------------------------------|
D|-------------------------------|-------------------------------|
A|-------------------------------|-------------------------------|
E|0------------------------------|-------------------------------|



  G                               Em
e|3------ ----3-- ------- 3------|0------ 0---0-- ----0-- 0------|
B|3-----------3-----------3------|0-------0---0-------0---0------|
G|0-----------0-----------0------|0-------0---0-------0---0------|
D|0-----------0-----------0------|2-------2---2-------2---2------|
A|2-----------2-----------2------|2-------2---2-------2---2------|
E|3-----------3-----------3------|0-------0---0-------0---0------|
          You     know you made me cry,
e|------- ------- ------- -------|------- ------- ------- -------|
B|-------------------------------|-------------------------------|
G|-------------------------------|-------------------------------|
D|5-----------5---5--------------|2------------2--2--------------|
A|5-----------5---5--------------|2------------2--2--------------|
E|3-----------3---3--------------|0------------0--0--------------|
      


  G                               Em
e|3------ 3---3-- ----3-- 3------|0------ 0---0-- ----0-- 0------|
B|3-------3---3-------3---3------|0-------0---0-------0---0------|
G|0-------0---0-------0---0------|0-------0---0-------0---0------|
D|0-------0---0-------0---0------|2-------2---2-------2---2------|
A|2-------2---2-------2---2------|2-------2---2-------2---2------|
E|3-------3---3-------3---3------|0-------0---0-------0---0------|
      I   see no  use in  wond'ring why,                  I
e|------- ------- ------- -------|------- ------- ------- -------|
B|-------------------------------|-------------------------------|
G|-------------------------------|-------------------------------|
D|5-----------5---5--------------|2------------2--2--------------|
A|5-----------5---5--------------|2------------2--2--------------|
E|3-----------3---3--------------|0------------0--0--------------|



  D                               G
e|2------ 2---2-- ------- 2------|3------ 3---3-- ------- 3------|
B|3-------3---3-----------3------|3-------3---3-----------3------|
G|2-------2---2-----------2------|0-------0---0-----------0------|
D|0-------0---0-----------0------|0-------0---0-----------0------|
A|-------------------------------|2-------2---2-----------2------|
E|-------------------------------|3-------3---3-----------3------|
  cried                   for     you
e|------- ------- ------- -------|------- ------- ------- -------|
B|-------------------------------|-------------------------------|
G|7-----------7---7--------------|-------------------------------|
D|7-----------7---7--------------|5-----------5---5--------------|
A|5-----------5---5--------------|5-----------5---5--------------|
E|-------------------------------|3-----------3---3--------------|



  D
e|------- 2---2-- ----2-- 2------|
B|--------3---3-------3---3------|
G|--------2---2-------2---2------|
D|--------0---0-------0---0------|
A|-------------------------------|
E|-------------------------------|

e|------- ------- ------- -------|
B|-------------------------------|
G|7-----------7---7--------------|
D|7-----------7---7--------------|
A|5-----------5---5--------------|
E|-------------------------------|



  G                               Em
e|------- 3---3-- ------- 3------|------- 0---0-- ----0-- 0------|
B|--------3---3-----------3------|--------0---0-------0---0------|
G|--------0---0-----------0------|--------0---0-------0---0------|
D|--------0---0-----------0------|--------2---2-------2---2------|
A|--------2---2-----------2------|--------2---2-------2---2------|
E|--------3---3-----------3------|--------0---0-------0---0------|
          And  now, you've changed your mind,
e|------- ------- ------- -------|------- ------- ------- -------|
B|-------------------------------|-------------------------------|
G|-------------------------------|-------------------------------|
D|5-----------5---5--------------|2------------2--2--------------|
A|5-----------5---5--------------|2------------2--2--------------|
E|3-----------3---3--------------|0------------0--0--------------|
      


  G                               Em
e|------- 3---3-- ------- 3------|0------ 0---0-- ----0-- 0------|
B|--------3---3-----------3------|0-------0---0-------0---0------|
G|--------0---0-----------0------|0-------0---0-------0---0------|
D|--------0---0-----------0------|2-------2---2-------2---2------|
A|--------2---2-----------2------|2-------2---2-------2---2------|
E|--------3---3-----------3------|0-------0---0-------0---0------|
      I   see no  reason  to change mine,                 my
e|------- ------- ------- -------|------- ------- ------- -------|
B|-------------------------------|-------------------------------|
G|-------------------------------|-------------------------------|
D|5-----------5---5--------------|2------------2--2--------------|
A|5-----------5---5--------------|2------------2--2--------------|
E|3-----------3---3--------------|0------------0--0--------------|



  D                               Am
e|------- ----2-- ------- 2------|------- 0---0-- ------- 0------|
B|------------3-----------3------|--------1---1-----------1------|
G|------------2-----------2------|--------2---2-----------2------|
D|------------0-----------0------|--------2---2-----------2------|
A|-------------------------------|--------0---0-----------0------|
E|-------------------------------|-------------------------------|
  cry                     is      through
e|------- ------- ------- -------|------- ------- ------- -------|
B|-------------------------------|-------------------------------|
G|7-----------7---7--------------|-------------------------------|
D|7-----------7---7--------------|5-----------5---5--------------|
A|5-----------5---5--------------|5-----------5---5--------------|
E|-------------------------------|3-----------3---3--------------|



  D
e|------- 2---2-- ----2-- 2---2--|
B|--------3---3-------3---3---3--|
G|--------2---2-------2---2---2--|
D|--------0---0-------0---0---0--|
A|-------------------------------|
E|-------------------------------|
  Oh
e|------- ------- ------- -------|
B|-------------------------------|
G|7-----------7---7--------------|
D|7-----------7---7--------------|
A|5-----------5---5--------------|
E|-------------------------------|



  Am                              Bm
e|0------ 0------ 0---0-- 0------|2------ 2---2-- ------- 2------|
B|1-------1-------1---1---1------|3-------3---3-----------3------|
G|2-------2-------2---2---2------|4-------4---4-----------4------|
D|2-------2-------2---2---2------|4-------4---4-----------4------|
A|0-------0-------0---0---0------|2-------2---2-----------2------|
E|-------------------------------|-------------------------------|
          You're  giving  me the  same old   line,
e|------- ------- ------- -------|------- ------- ------- -------|
B|-------------------------------|-------------------------------|
G|-------------------------------|-------------------------------|
D|7-----------7---7--------------|9-----------9---9--------------|
A|7-----------7---7--------------|9-----------9---9--------------|
E|5-----------5---5--------------|7-----------7---7--------------|



  G                               Em 
e|------- 3---3-- 3------ 3------|------- 0---0-- ------- 0------|
B|--------3---3---3-------3------|--------0---0-----------0------|
G|--------0---0---0-------0------|--------0---0-----------0------|
D|--------0---0---0-------0------|--------2---2-----------2------|
A|--------2---2---2-------2------|--------2---2-----------2------|
E|--------3---3---3-------3------|--------0---0---0-------0------|
          I'm     wond'ring       why,
e|------- ------- ------- -------|------- ------- ------- -------|
B|-------------------------------|-------------------------------|
G|-------------------------------|--------------------0----------|
D|5-----------5---5--------------|2-----------0---2-------2------|
A|5-----------5---5--------------|2-----------2---2--------------|
E|3-----------3---3--------------|0-----------0---0--------------|



  Am
e|0------ 0------ 0---0-- 0---0--|0---0-- 0------ 0---0-- 0------|
B|1-------1-------1---1---1---1--|1---1---1-------1---1---1------|
G|2-------2-------2---2---2---2--|2---2---2-------2---2---2------|
D|2-------2-------2---2---2---2--|2---2---2-------2---2---2------|
A|0-------0-------0---0---0---0--|0---0---0-------0---0---0------|
E|-------------------------------|-------------------------------|
              You hurt me then,             you're back again,
e|------- ------- ------- -------|------- ------- ------- -------|
B|-------------------------------|7------------------------------|
G|-------------------------------|5------------------------------|
D|7-----------7---7--------------|7-----------7---7--------------|
A|7-----------7---7--------------|7-----------7---7--------------|
E|5-----------5---5--------------|5-----------5---5--------------|



  Bm                              D
e|2------ 2------ ----2-- 2------|2------ 2------ 2---2-- 2------|
B|3-------3-----------3---3------|3-------3-------3---3---3------|
G|4-------4-----------4---4------|2-------2-------2---2---2------|
D|4-------4-----------4---4------|4-------4-------4---4---4------|
A|2-------2-----------2---2------|5-------5-------5---5---5------|
E|-------------------------------|-------------------------------|
  No,                     no,     no,             Not a   second 
e|------- ------- ------- -------|------- ------- ------- -------|
B|-------------------------------|-------------------------------|
G|-------------------------------|7-----------7---7--------------|
D|9-----------9---9--------------|7-----------7---7--------------|
A|9-----------9---9--------------|5-----------5---5--------------|
E|7-----------7---7--------------|-------------------------------|



  Em
e|0------ 0---0-- ----0-- 0---0--|0------ ------- ------- -------|
B|0-------0---0-------0---0---0--|0------------------------------|
G|0-------0---0-------0---0---0--|0------------------------------|
D|2-------2---2-------2---2---2--|2------------------------------|
A|2-------2---2-------2---2---2--|2------------------------------|
E|0-------0---0-------0---0---0--|0------------------------------|
  time
e|------- ------- ------- -------|------- ------- ------- -------|
B|-------------------------------|-------------------------------|
G|--------------------0----------|-------------------------------|
D|2-----------0---2-------2---0--|2------------------------------|
A|2-----------2---2-------2------|2------------------------------|
E|0---------------0--------------|0------------------------------|
                                                  Not a   second



  G                               Em
e|3------ 3---3-- ----3-- 3---3--|0------ 0---0-- ----0-- 0------|
B|3-------3---3-------3---3---3--|0-------0---0-------0---0------|
G|0-------0---0-------0---0---0--|0-------0---0-------0---0------|
D|0-------0---0-------0---0---0--|2-------2---2-------2---2------|
A|2-------2---2-------2---2---2--|2-------2---2-------2---2------|
E|3-------3---3-------3---3---3--|0-------0---0-------0---0------|
  time                                            Not a   second
e|------- ------- ------- -------|------- ------- ------- -------|
B|-------------------------------|-------------------------------|
G|-------------------------------|-------------------------------|
D|5-----------5---5--------------|2-----------2---2--------------|
A|5-----------5---5--------------|2-----------2---2--------------|
E|3-----------3---3--------------|0-----------0---0--------------|



  G                               Em
e|3------ 3---3-- ----3-- 3---3--|0------ 0---0-- ----0-- 0------|
B|3-------3---3-------3---3---3--|0-------0---0-------0---0------|
G|0-------0---0-------0---0---0--|0-------0---0-------0---0------|
D|0-------0---0-------0---0---0--|2-------2---2-------2---2------|
A|2-------2---2-------2---2---2--|2-------2---2-------2---2------|
E|3-------3---3-------3---3---3--|0-------0---0-------0---0------|
  time                                            No  no  no  no
e|------- ------- ------- -------|------- ------- ------- -------|
B|-------------------------------|-------------------------------|
G|-------------------------------|-------------------------------|
D|5-----------5---5--------------|2-----------2---2--------------|
A|5-----------5---5--------------|2-----------2---2--------------|
E|3-----------3---3--------------|0-----------0---0--------------|
                                  .................Fade..........


  G                               Em
e|3------ 3---3-- ----3-- 3---3--|0------ 0---0-- ----0-- 0---0--|
B|3-------3---3-------3---3---3--|0-------0---0-------0---0---0--|
G|0-------0---0-------0---0---0--|0-------0---0-------0---0---0--|
D|0-------0---0-------0---0---0--|2-------2---2-------2---2---2--|
A|2-------2---2-------2---2---2--|2-------2---2-------2---2---2--|
E|3-------3---3-------3---3---3--|0-------0---0-------0---0---0--|
  no              Not a   second  time
e|------- ------- ------- -------|------- ------- ------- -------|
B|-------------------------------|-------------------------------|
G|-------------------------------|-------------------------------|
D|5-----------5---5--------------|2-----------2---2--------------|
A|5-----------5---5--------------|2-----------2---2--------------|
E|3-----------3---3--------------|0-----------0---0--------------|
  ...............................................................

  G

e|3------ 3---3-- ----3-- 3---3--|
B|3-------3---3-------3---3---3--|
G|0-------0---0-------0---0---0--|
D|0-------0---0-------0---0---0--|
A|2-------2---2-------2---2---2--|
E|3-------3---3-------3---3---3--|
                  No  no  no  no
e|------- ------- ------- -------|
B|-------------------------------|
G|-------------------------------|
D|5-----------5---5--------------|
A|5-----------5---5--------------|
E|3-----------3---3--------------|
  ......................





        B  Bend
        R  Release
        /  slide up
        \  slide down
        H  hammer-on
        P  pull-off
        ~  vibrato
        +  harmonic
        x  Mute note
        . - play note like a dot in standard notation
        ^ - ties two notes together
        (. Pause



  --------------------------------------------------------------------

  THE BEATLES - MONEY (Robinson) From WITH THE BEATLES album. 
                Released on 22nd November 1963.

  --------------------------------------------------------------------

  Tabbed by:PJVillanueva






  The best things in life are free
  But you can tell me 'bout the birds and bees.
  Now gimme money (that's what I want)
  That's what I want (that's what I want)
  That's what I want, Oh yeah,
  That's what I want.

  Your lovin' give me a thrill
  But your lovin' don't pay my bill.
  Now gimme money (that's what I want)
  That's what I want (that's what I want)
  That's what I want,yeh,
  That's what I want.

  Money don't get everything it's true.
  What it don't get I can't use.
  So gimme money (that's what I want)
  A little money (that's what I want)
  That's what I want, Oh yeh,
  That's what I want.

  Money don't get everything it's true.
  What it don't get I can't use.
  Now gimme money (that's what I want)
  That's what I want (that's what I want)
  That's what I want, Oh yeah,
  That's what I want.

  Well now gimme money (that's what I want)
  A little money (that's what I want)
  Wow yeah money please (that's what I want)
  Oh, a lot of money (that's what I want)
  That's what I want, Oh yeah,
  That's what I want.

  Well now gimme money (that's what I want)
  A lot of money (that's what I want)
  Oh yeah, you don't need money (that's what I want)
  Oh, now money (that's what I want)
  That's what I want, Oh yeah,
  That's what I want.




  E
e|------- ------- ------- -------|------- ------- ------- -------|
B|-------------------------------|-------------------------------|
G|0---0---4---5---6-------4---0--|4---0---4---6-------4---4---4--|
D|-------------------------------|-------------------------------|
A|-------------------------------|-------------------------------|
E|0---0---3---4---5-------3---0--|3---0---3---5-------3---3---3--|




e|------- ------- ------- -------|------- ------- ------- -------|
B|-------------------------------|-------------------------------|
G|0---0---4---5---6-------4---0--|4---0---4---6-------4---4---4--|
D|-------------------------------|-------------------------------|
A|-------------------------------|-------------------------------|
E|0---0---3---4---5-------3---0--|3---0---3---5-------3---3---3--|

e|------- ------- ------- -------|------- ------- ------- -------|
B|-------------------------------|-------------------------------|
G|-------------------------------|-------------------------------|
D|-------------------------------|-------------------------------|
A|-------------------------------|-------------------------------|
E|0---0---3---4---5-------3---0--|3---0---3---5-------3---3---3--|



  B7                              A7
e|7-----7 7---7-- ------- -------|5-----5 5---5-- ------- -------|
B10----1010--10------------------|8-----8-8---8------------------|
G|8-----8-8---8------------------|6-----6-6---6------------------|
D|7-----7-7---7------------------|5-----5-5---5------------------|
A|9-----9-9---9------------------|7-----7-7---7------------------|
E|7-----7-7---7------------------|5-----5-5---5------------------|

e|------- ------- ------- -------|------- ------- ------- -------|
B|-------------------------------|-------------------------------|
G|0---0---4---5---6-------4---0--|4---0---4---6-------4---4---4--|
D|-------------------------------|-------------------------------|
A|-------------------------------|-------------------------------|
E|0---0---3---4---5-------3---0--|3---0---3---5-------3---3---3--|

e|------- ------- ------- -------|------- ------- ------- -------|
B|-------------------------------|-------------------------------|
G|-------------------------------|-------------------------------|
D|-------------------------------|-------------------------------|
A|-------------------------------|-------------------------------|
E|0---0---3---4---5-------3---0--|3---0---3---5-------3---3---3--|




  E                                   B
e|------- ------- ------- -------|----7-- 7---7-- 7---7-- 7---7--|
B|-------------------------------|----7---7---7---7---7---7---7--|
G|-------------------------------|----8---8---8---8---8---8---8--|
D|-------------------------------|----9---9---9---9---9---9---9--|
A|-------------------------------|----9---9---9---9---9---9---9--|
E|-------------------------------|----7---7---7---7---7---7---7--|

e|------- ------- ------- -------|------- ------- ------- -------|
B|-------------------------------|----0---0---0---0---0---0---0--|
G|0---0---4---5---6-------4---0--|----2---2---2---2---2---2---2--|
D|-------------------------------|----1---1---1---1---1---1---1--|
A|-------------------------------|----2---2---2---2---2---2---2--|
E|0---0---3---4---5-------3---0--|-------------------------------|

e|------- ------- ------- -------|------- ------- ------- -------|
B|-------------------------------|-------------------------------|
G|-------------------------------|-------------------------------|
D|-------------------------------|-------------------------------|
A|-------------------------------|-------------------------------|
E|0---0---3---4---5-------3---0--|-------------------------------|





  E                                                   A
e|0------ ------- ------- -------|------- ------- ----0-- 0---0--|
B|0------------------------------|--------------------2---2---2--|
G|1------------------------------|--------------------2---2---2--|
D|2------------------------------|--------------------2---2---2--|
A|2------------------------------|--------------------0---0---0--|
E|0------------------------------|-------------------------------|
         The best things in      life are   free 


  E                                                   G
e|0------ ------- ------- -------|------- ------- ----3-- 3------|
B|0------------------------------|--------------------3---3------|
G|1------------------------------|--------------------4---4------|
D|2------------------------------|--------------------5---5------|
A|2------------------------------|--------------------5---5------|
E|0------------------------------|--------------------3---3------|
     But  you can keep 'em for the birds and bees.    Now gimme

 
  A7   
e|5------ 5------ ------- 5------|------- ----5-- ----5-- -------|
B|8-------8---------------8------|------------8-------8----------|
G|6-------6---------------6------|------------6-------6----------|
D|7-------5---------------5------|------------5-------5----------|
A|7-------7---------------7------|------------7-------7----------|
E|5-------5---------------5------|------------5-------5----------|
  money                                               That's what I
         (That's                  what I      want)
e|------- ------- ------- -------|------- ------- ------- -------|
B|-------------------------------|-------------------------------|
G|0---0---4---5---6-------4---0--|4---0---4---6-------4---4---4--|
D|-------------------------------|-------------------------------|
A|-------------------------------|-------------------------------|
E|0---0---3---4---5-------3---0--|3---0---3---5-------3---3---3--|



  E7
e|0------ 0---0-- ----0-- -------|0---0-- 0---0-- ----0-- -------|
B|3-------3---3-------3----------|3---3---3---3-------3----------|
G|1-------1---1-------1----------|1---1---1---1-------1----------|
D|2-------2---2-------2----------|2---2---2---2-------2----------|
A|2-------2---2-------2----------|2---2---2---2-------2----------|
E|0-------0---0-------0----------|0---0---0---0-------0----------|
  want.                                               That's what I
         (That's                  what I      want)
e|------- ------- ------- -------|------- ------- ------- -------|
B|-------------------------------|-------------------------------|
G|0---0---4---5---6-------4---0--|4---0---4---6-------4---4---4--|
D|-------------------------------|-------------------------------|
A|-------------------------------|-------------------------------|
E|0---0---3---4---5-------3---0--|3---0---3---5-------3---3---3--|



  B7                              A7
e|7------ 7---7- ------- --7-----|5------ ----5-- ------- 5---5--|
B10------10--10-----------10-----|8-----------8-----------8---8--|
G|8-------8---8------------8-----|6-----------6-----------6---6--|
D|7-------7---7------------7-----|5-----------5-----------5---5--|
A|9-------9---9------------9-----|7-----------7-----------7---7--|
E|7-------7---7------------7-----|5-----------5-----------5---5--|
  want                                 Oh, yeah
         (That's                  what I      want)
e|------- ------- ------- -------|------- ------- ------- -------|
B|-------------------------------|-------------------------------|
G|0---0---4---5---6-------4---0--|4---0---4---6-------4---4---4--|
D|-------------------------------|-------------------------------|
A|-------------------------------|-------------------------------|
E|0---0---3---4---5-------3---0--|3---0---3---5-------3---3---3--|



  E               A       G   E       B
e|0---0-- 0---0-- 0------ ----0--|----7-- 7---7-- 7---7-- 7---7--|
B|0---0---0---0---2-------0---0--|----7---7---7---7---7---7---7--|
G|1---1---1---1---2-------0---1--|----8---8---8---8---8---8---8--|
D|2---2---2---2---2-------0---2--|----9---9---9---9---9---9---9--|
A|2---2---2---2---0-----------2--|----9---9---9---9---9---9---9--|
E|0---0---0---0---------------0--|----7---7---7---7---7---7---7--|   
          That's  what I      want
e|------- ------- ------- -------|------- ------- ------- -------|
B|-------------------------------|----0---0---0---0---0---0---0--|
G|0---0---4---5---6-------4---0--|----2---2---2---2---2---2---2--|
D|-------------------------------|----1---1---1---1---1---1---1--|
A|-------------------------------|----2---2---2---2---2---2---2--|
E|0---0---3---4---5-------3---0--|-------------------------------|



  E                                                   A
e|0------ ------- ------- -------|------- ------- ----0-- 0---0--|
B|0------------------------------|--------------------2---2---2--|
G|1------------------------------|--------------------2---2---2--|
D|2------------------------------|--------------------2---2---2--|
A|2------------------------------|--------------------0---0---0--|
E|0------------------------------|-------------------------------|
          Your     lovin' give    me a        thrill  


  E                                                   G
e|0------ ------- ------- -------|------- ------- ----3-- 3---3--|
B|0------------------------------|--------------------3---3---3--|
G|1------------------------------|--------------------4---4---4--|
D|2------------------------------|--------------------5---5---5--|
A|2------------------------------|--------------------5---5---5--|
E|0------------------------------|--------------------3---3---3--|
          But your lovin' don't   pay my      bills.  Now gimme
      

  A7
e|5------ 5------ ------- 5------|5------ 5---5-- ----5-- -------|
B|8-------8---------------8------|8-------8---8-------8----------|
G|6-------6---------------6------|6-------6---6-------6----------|
D|7-------5---------------5------|5-------5---5-------5----------|
A|7-------7---------------7------|7-------7---7-------7----------|
E|5-------5---------------5------|5-------5---5-------5----------|
  money                                               That's what I
         (That's                  what I      want)
e|------- ------- ------- -------|------- ------- ------- -------|
B|-------------------------------|-------------------------------|
G|0---0---4---5---6-------4---0--|4---0---4---6-------4---4---4--|
D|-------------------------------|-------------------------------|
A|-------------------------------|-------------------------------|
E|0---0---3---4---5-------3---0--|3---0---3---5-------3---3---3--|



          E7       
e|------- 0------ ----0-- -------|0---0-- ----0-- ----0-- -------|
B|--------3-----------3----------|3---3-------3-------3----------|
G|--------1-----------1----------|1---1-------1-------1----------|
D|--------2-----------2----------|2---2-------2-------2----------|
A|--------2-----------2----------|2---2-------2-------2----------|
E|--------0-----------0----------|0---0-------0-------0----------|
  want.                                               That's what I
         (That's                  what I      want)
e|------- ------- ------- -------|------- ------- ------- -------|
B|-------------------------------|-------------------------------|
G|0---0---4---5---6-------4---0--|4---0---4---6-------4---4---4--|
D|-------------------------------|-------------------------------|
A|-------------------------------|-------------------------------|
E|0---0---3---4---5-------3---0--|3---0---3---5-------3---3---3--|



  B7                              A7
e|7------ ----7-- -----7- -------|5------ ----5-- ----5-- 5------|
B10----------10-------10---------|8-----------8-------8---8------|
G|8-----------8--------8---------|6-----------6-------6---6------|
D|7-----------7--------7---------|5-----------5-------5---5------|
A|9-----------9--------9---------|7-----------7-------7---7------|
E|7-----------7--------7---------|5-----------5-------5---5------|
  want                                 Oh, yeah
          (That's                  what I      want)
e|------- ------- ------- -------|------- ------- ------- -------|
B|-------------------------------|-------------------------------|
G|0---0---4---5---6-------4---0--|4---0---4---6-------4---4---4--|
D|-------------------------------|-------------------------------|
A|-------------------------------|-------------------------------|
E|0---0---3---4---5-------3---0--|3---0---3---5-------3---3---3--|



  E7              A           E7      B
e|0------ 0------ 0------ ----0--|----7-- 7---7-- 7---7-- 7---7--|
B|3-------3-------2-----------3--|----7---7---7---7---7---7---7--|
G|1-------1-------2-----------1--|----8---8---8---8---8---8---8--|
D|2-------2-------2-----------2--|----9---9---9---9---9---9---9--|
A|2-------2-------0-----------2--|----9---9---9---9---9---9---9--|
E|0-------0-------------------0--|----7---7---7---7---7---7---7--|
          That's  what I      want
e|------- ------- ------- -------|------- ------- ------- -------|
B|-------------------------------|----0---0---0---0---0---0---0--|
G|0---0---4---5---6-------4---0--|----2---2---2---2---2---2---2--|
D|-------------------------------|----1---1---1---1---1---1---1--|
A|-------------------------------|----2---2---2---2---2---2---2--|
E|0---0---3---4---5-------3---0--|-------------------------------|



  E                                                   A
e|0------ ------- ------- -------|------- ------- ----0-- 0---0--|
B|0------------------------------|--------------------2---2---2--|
G|1------------------------------|--------------------2---2---2--|
D|2------------------------------|--------------------2---2---2--|
A|2------------------------------|--------------------0---0---0--|
E|0------------------------------|-------------------------------|
          Money   don't give evrything it's  true


  E                                                   G
e|0------ ------- ------- -------|------- ------- ----3-- 3---3--|
B|0------------------------------|--------------------3---3---3--|
G|1------------------------------|--------------------4---4---4--|
D|2------------------------------|--------------------5---5---5--|
A|2------------------------------|--------------------5---5---5--|
E|0------------------------------|--------------------3---3---3--|
          What it don't get     I    can't use        Now gimme 


  A7
e|5------ 5---5-- ----5-- 5------|------- 5---5-- ----5-- ----5--|
B|8-------8---8-------8---8------|--------8---8-------8-------8--|
G|6-------6---6-------6---6------|--------6---6-------6-------6--|
D|5-------5---5-------5---5------|--------5---5-------5-------5--|
A|7-------7---7-------7---7------|--------7---7-------7-------7--|
E|5-------5---5-------5---5------|--------5---5-------5-------5--|
  money                                              That's what I
         (That's                  what I       want)
e|------- ------- ------- -------|------- ------- ------- -------|
B|-------------------------------|-------------------------------|
G|0---0---4---5---6-------4---0--|4---0---4---6-------4---4---4--|
D|-------------------------------|-------------------------------|
A|-------------------------------|-------------------------------|
E|0---0---3---4---5-------3---0--|3---0---3---5-------3---3---3--|



  E7    
e|0---0-- 0------ ----0-- -------|0---0-- ----0-- ----0-- -------|
B|5---5---5-----------5----------|5---5-------5-------5----------|
G|7---7---7-----------7----------|7---7-------7-------7----------|
D|6---6---6-----------6----------|6---6-------6-------6----------|
A|7---7---7-----------7----------|7---7-------7-------7----------|
E|0---0---0-----------0----------|0---0-------0-------0----------|
  want                                               That's what I
         (That's                  what I      want)
e|------- ------- ------- -------|------- ------- ------- -------|
B|-------------------------------|-------------------------------|
G|0---0---4---5---6-------4---0--|4---0---4---6-------4---4---4--|
D|-------------------------------|-------------------------------|
A|-------------------------------|-------------------------------|
E|0---0---3---4---5-------3---0--|3---0---3---5-------3---3---3--|




  B7                              A7
e|7------ 7---7-- ------- -7-----|5------ ----5-- ----5-- 5---5--|
B10------10--10-----------10-----|8-----------8-------8---8---8--|
G|8-------8---8------------8-----|6-----------6-------6---6---6--|
D|7-------7---7------------7-----|5-----------5-------5---5---5--|
A|9-------9---9------------9-----|7-----------7-------7---7---7--|
E|7-------7---7------------7-----|5-----------5-------5---5---5--|
  want                                    Oh, yeah
          (That's                  what I      want)
e|------- ------- ------- -------|------- ------- ------- -------|
B|-------------------------------|-------------------------------|
G|0---0---4---5---6-------4---0--|4---0---4---6-------4---4---4--|
D|-------------------------------|-------------------------------|
A|-------------------------------|-------------------------------|
E|0---0---3---4---5-------3---0--|3---0---3---5-------3---3---3--|




  E               A       G   E       B
e|0---0-- 0---0-- 0------ ----0--|----7-- 7---7-- 7---7-- 7---7--|
B|0---0---0---0---2-------0---0--|----7---7---7---7---7---7---7--|
G|1---1---1---1---2-------0---1--|----8---8---8---8---8---8---8--|
D|2---2---2---2---2-------0---2--|----9---9---9---9---9---9---9--|
A|2---2---2---2---0-----------2--|----9---9---9---9---9---9---9--|
E|0---0---0---0---------------0--|----7---7---7---7---7---7---7--|
          That's  what I      want
e|------- ------- ------- -------|------- ------- ------- -------|
B|-------------------------------|----0---0---0---0---0---0---0--|
G|0---0---4---5---6-------4---0--|----2---2---2---2---2---2---2--|
D|-------------------------------|----1---1---1---1---1---1---1--|
A|-------------------------------|----2---2---2---2---2---2---2--|
E|0---0---3---4---5-------3---0--|-------------------------------|




  E
e|------- ------- ------- -------|------- ------- ------- -------|
B|-------------------------------|-------------------------------|
G|0---0---4---5---6-------4---0--|4---0---4---6-------4---4---4--|
D|-------------------------------|-------------------------------|
A|-------------------------------|-------------------------------|
E|0---0---3---4---5-------3---0--|3---0---3---5-------3---3---3--|    

e|------- ------- ------- -------|------- ------- ------- -------|
B|-------------------------------|-------------------------------|
G|--------4---5---6-------4------|4-------4---6-------4---4---4--|
D|5---5---5---6---7-------5---5--|5---5---5---7-------5---5---5--|
A|7---7-----------------------7--|----7--------------------------|
E|-------------------------------|-------------------------------|



  
e|------- ------- ------- -------|------- ------- ------- -------|
B|-------------------------------|-------------------------------|
G|0---0---4---5---6-------4---0--|4---0---4---6-------4---4---4--|
D|-------------------------------|-------------------------------|
A|-------------------------------|-------------------------------|
E|0---0---3---4---5-------3---0--|3---0---3---5-------3---3---3--|

e|------- ------- ------- -------|------- ------- ------- -------|
B|-------------------------------|-------------------------------|
G|--------4---5---6-------4------|4-------4---6-------4---4---4--|
D|5---5---5---6---7-------5---5--|5---5---5---7-------5---5---5--|
A|7---7-----------------------7--|----7--------------------------|
E|-------------------------------|-------------------------------|


  B7                              A7
e|7-----7 7---7-- ------- -------|5-----5 5---5-- ------- -------|
B10----1010--10------------------|8-----8-8---8------------------|
G|8-----8-8---8------------------|6-----6-6---6------------------|
D|7-----7-7---7------------------|5-----5-5---5------------------|
A|9-----9-9---9------------------|7-----7-7---7------------------|
E|7-----7-7---7------------------|5-----5-5---5------------------|

e|------- ------- ------- -------|------- ------- ------- -------|
B|-------------------------------|-------------------------------|
G|0---0---4---5---6-------4---0--|4---0---4---6-------4---4---4--|
D|-------------------------------|-------------------------------|
A|-------------------------------|-------------------------------|
E|0---0---3---4---5-------3---0--|3---0---3---5-------3---3---3--| 

e|------- ------- ------- -------|------- ------- ------- -------|
B|-------------------------------|-------------------------------|
G|--------4---5---6-------4------|4-------4---6-------4---4---4--|
D|5---5---5---6---7-------5---5--|5---5---5---7-------5---5---5--|
A|7---7-----------------------7--|----7--------------------------|
E|-------------------------------|-------------------------------|   



  E               A       G   E       B
e|0---0-- 0---0-- 0------ ----0--|----7-- 7---7-- 7---7-- 7---7--|
B|0---0---0---0---2-------0---0--|----7---7---7---7---7---7---7--|
G|1---1---1---1---2-------0---1--|----8---8---8---8---8---8---8--|
D|2---2---2---2---2-------0---2--|----9---9---9---9---9---9---9--|
A|2---2---2---2---0-----------2--|----9---9---9---9---9---9---9--|
E|0---0---0---0---------------0--|----7---7---7---7---7---7---7--|
          
e|------- ------- ------- -------|------- ------- ------- -------|
B|-------------------------------|----0---0---0---0---0---0---0--|
G|0---0---4---5---6-------4---0--|----2---2---2---2---2---2---2--|
D|-------------------------------|----1---1---1---1---1---1---1--|
A|-------------------------------|----2---2---2---2---2---2---2--|
E|0---0---3---4---5-------3---0--|-------------------------------|

e|------- ------- ------- -------|------- ------- ------- -------|
B|-------------------------------|-------------------------------|
G|--------4---5---6-------4------|-------------------------------|
D|5---5---5---6---7-------5---5--|-------------------------------|
A|7---7-----------------------7--|-------------------------------|
E|-------------------------------|-------------------------------|



  E                                                   A
e|0------ ------- ------- -------|------- ------- ----0-- 0---0--|
B|0------------------------------|--------------------2---2---2--|
G|1------------------------------|--------------------2---2---2--|
D|2------------------------------|--------------------2---2---2--|
A|2------------------------------|--------------------0---0---0--|
E|0------------------------------|-------------------------------|
          Money   don't give evrything it's  true


  E           
e|0------ ------- ------- -------|------- ------- ------- 0------|
B|0------------------------------|------------------------0------|
G|1------------------------------|------------------------1------|
D|2------------------------------|------------------------2------|
A|2------------------------------|------------------------2------|
E|0------------------------------|------------------------0------|
          What it don't get     I    can't use        So  gimme 


  A7
e|5------ 5------ 5------ 5------|------- 5------ ----5-- ----5--|
B|8-------8-------8-------8------|--------8-----------8-------8--|
G|6-------6-------6-------6------|--------6-----------6-------6--|
D|7-------5-------5-------5------|--------5-----------5-------5--|
A|7-------7-------7-------7------|--------7-----------7-------7--|
E|5-------5-------5-------5------|--------5-----------5-------5--|
  money                                              That's what I
         (That's                  what I       want)
e|------- ------- ------- -------|------- ------- ------- -------|
B|-------------------------------|-------------------------------|
G|0---0---4---5---6-------4---0--|4---0---4---6-------4---4---4--|
D|-------------------------------|-------------------------------|
A|-------------------------------|-------------------------------|
E|0---0---3---4---5-------3---0--|3---0---3---5-------3---3---3--|



  E7              
e|0------ 0---0-- 0---0-- 0---0--|0---0-- 0---0-- ----0-- ----0--|
B|3-------3---3---3---3---3---3--|3---3---3---3-------3-------3--|
G|1-------1---1---1---1---1---1--|1---1---1---1-------1-------1--|
D|2-------2---2---2---2---2---2--|2---2---2---2-------2-------2--|
A|2-------2---2---2---2---2---2--|2---2---2---2-------2-------2--|
E|0-------0---0---0---0---0---0--|0---0---0---0-------0-------0--|
  want                                               That's what I
         (That's                  what I      want)
e|------- ------- ------- -------|------- ------- ------- -------|
B|-------------------------------|-------------------------------|
G|0---0---4---5---6-------4---0--|4---0---4---6-------4---4---4--|
D|-------------------------------|-------------------------------|
A|-------------------------------|-------------------------------|
E|0---0---3---4---5-------3---0--|3---0---3---5-------3---3---3--|



  B7                              A7
e|7------ ----7-- ------- -7-----|5------ ----5-- ----5-- 5------|
B10----------10-----------10-----|8-----------8-------8---8------|
G|8-----------8------------8-----|6-----------6-------6---6------|
D|7-----------7------------7-----|5-----------5-------5---5------|
A|9-----------9------------9-----|7-----------7-------7---7------|
E|7-----------7------------7-----|5-----------5-------5---5------|
  want                                    Oh, yeah 
         (That's                  what I      want)
e|------- ------- ------- -------|------- ------- ------- -------|
B|-------------------------------|-------------------------------|
G|0---0---4---5---6-------4---0--|4---0---4---6-------4---4---4--|
D|-------------------------------|-------------------------------|
A|-------------------------------|-------------------------------|
E|0---0---3---4---5-------3---0--|3---0---3---5-------3---3---3--|



  E               A       G   E       B
e|0---0-- 0---0-- 0------ ----0--|----7-- 7---7-- 7---7-- 7---7--|
B|0---0---0---0---2-------0---0--|----7---7---7---7---7---7---7--|
G|1---1---1---1---2-------0---1--|----8---8---8---8---8---8---8--|
D|2---2---2---2---2-------0---2--|----9---9---9---9---9---9---9--|
A|2---2---2---2---0-----------2--|----9---9---9---9---9---9---9--|
E|0---0---0---0---------------0--|----7---7---7---7---7---7---7--|
          That's  what I      want    Well            now gimme
e|------- ------- ------- -------|------- ------- ------- -------|
B|-------------------------------|----0---0---0---0---0---0---0--|
G|0---0---4---5---6-------4---0--|----2---2---2---2---2---2---2--|
D|-------------------------------|----1---1---1---1---1---1---1--|
A|-------------------------------|----2---2---2---2---2---2---2--|
E|0---0---3---4---5-------3---0--|-------------------------------|



          E7
e|------- 0---0-- ----0-- 0------|------- 0---0-- ----0-- 0------|
B|--------3---3-------3---3------|--------3---3-------3---3------|
G|--------1---1-------1---1------|--------1---1-------1---1------|
D|--------2---2-------2---2------|--------2---2-------2---2------|
A|--------2---2-------2---2------|--------2---2-------2---2------|
E|--------0---0-------0---0------|--------0---0-------0---0------|
  money                                               A   lot of
         (That's                  what I      want)
e|------- ------- ------- -------|------- ------- ------- -------|  
B|-------------------------------|-------------------------------|
G|0---0---4---5---6-------4---0--|4---0---4---6-------4---4---4--|
D|-------------------------------|-------------------------------|
A|-------------------------------|-------------------------------|
E|0---0---3---4---5-------3---0--|3---0---3---5-------3---3---3--|
  



e|------- 0---0-- 0------ 0---0--|0------ 0---0-- ----0-- ----0--|
B|--------3---3---3-------3---3--|3-------3---3-------3-------3--|
G|--------1---1---1-------1---1--|1-------1---1-------1-------1--|
D|--------2---2---2-------2---2--|2-------2---2-------2-------2--|
A|--------2---2---2-------2---2--|2-------2---2-------2-------2--|
E|--------0---0---0-------0---0--|0-------0---0-------0-------0--|
  money                           Wow         yeah    money, please
         (That's                  what I      want)
e|------- ------- ------- -------|------- ------- ------- -------|
B|-------------------------------|-------------------------------|
G|0---0---4---5---6-------4---0--|4---0---4---6-------4---4---4--|
D|-------------------------------|-------------------------------|
A|-------------------------------|-------------------------------|
E|0---0---3---4---5-------3---0--|3---0---3---5-------3---3---3--|
  


  A7
e|5------ 5------ 5---5-- ----5--|------- 5------ ----5-- 5---5--|
B|8-------8-------8---8-------8--|--------8-----------8---8---8--|
G|6-------6-------6---6-------6--|--------6-----------6---6---6--|
D|5-------5-------5---5-------5--|--------5-----------5---5---5--|
A|7-------7-------7---7-------7--|--------7-----------7---7---7--|
E|5-------5-------5---5-------5--|--------5-----------5---5---5--|
                                                  Oh, a   lot of 
         (That's                  what I      want)
e|------- ------- ------- -------|------- ------- ------- -------|
B|-------------------------------|-------------------------------|
G|0---0---4---5---6-------4---0--|4---0---4---6-------4---4---4--|
D|-------------------------------|-------------------------------|
A|-------------------------------|-------------------------------|
E|0---0---3---4---5-------3---0--|3---0---3---5-------3---3---3--|
                                                  


          E7
e|------- 0---0-- ----0-- 0---0--|0------ ----0-- ----0-- 0---0--|
B|--------3---3-------3---3---3--|3-----------3-------3---3---3--|
G|--------1---1-------1---1---1--|1-----------1-------1---1---1--|
D|--------2---2-------2---2---2--|2-----------2-------2---2---2--|
A|--------2---2-------2---2---2--|2-----------2-------2---2---2--|
E|--------0---0-------0---0---0--|0-----------0-------0---0---0--|
  money                                               That's what I 
         (That's                  what I      want)
e|------- ------- ------- -------|------- ------- ------- -------|
B|-------------------------------|-------------------------------|
G|0---0---4---5---6-------4---0--|4---0---4---6-------4---4---4--|
D|-------------------------------|-------------------------------|
A|-------------------------------|-------------------------------|
E|0---0---3---4---5-------3---0--|3---0---3---5-------3---3---3--|
  


  B7                              A7
e|7-----7 ---7--- ------- -7-----|5-----5 ----5-- ------- 5------|
B10----10---10------------10-----|8-----8-----8-----------8------|
G|8-----8----8-------------8-----|6-----6-----6-----------6------|
D|7-----7----7-------------7-----|5-----5-----5-----------5------|
A|9-----9----9-------------9-----|7-----7-----7-----------7------|
E|7-----7----7-------------7-----|5-----5-----5-----------5------|
  want                                    Oh, yeah
         (That's                  what I      want)
e|------- ------- ------- -------|------- ------- ------- -------|
B|-------------------------------|-------------------------------|
G|0---0---4---5---6-------4---0--|4---0---4---6-------4---4---4--|
D|-------------------------------|-------------------------------|
A|-------------------------------|-------------------------------|
E|0---0---3---4---5-------3---0--|3---0---3---5-------3---3---3--|



  E               A       G   E       B
e|0---0-- 0---0-- 0------ ----0--|----7-- 7---7-- 7---7-- 7---7--|
B|0---0---0---0---2-------0---0--|----7---7---7---7---7---7---7--|
G|1---1---1---1---2-------0---1--|----8---8---8---8---8---8---8--|
D|2---2---2---2---2-------0---2--|----9---9---9---9---9---9---9--|
A|2---2---2---2---0-----------2--|----9---9---9---9---9---9---9--|
E|0---0---0---0---------------0--|----7---7---7---7---7---7---7--| 
          That's  what I      want    Well,           now gimme
e|------- ------- ------- -------|------- ------- ------- -------|
B|-------------------------------|----0---0---0---0---0---0---0--|
G|0---0---4---5---6-------4---0--|----2---2---2---2---2---2---2--|
D|-------------------------------|----1---1---1---1---1---1---1--|
A|-------------------------------|----2---2---2---2---2---2---2--|
E|0---0---3---4---5-------3---0--|-------------------------------|
  


          E7
e|------- 0---0-- 0------ 0------|------- 0---0-- ----0-- ----0--|
B|--------3---3---3-------3------|--------3---3-------3-------3--|
G|--------1---1---1-------1------|--------1---1-------1-------1--|
D|--------2---2---2-------2------|--------2---2-------2-------2--|
A|--------2---2---2-------2------|--------2---2-------2-------2--|
E|--------0---0---0-------0------|--------0---0-------0-------0--|
  money                                               A   lot of
         (That's                  what I      want)
e|------- ------- ------- -------|------- ------- ------- -------|
B|-------------------------------|-------------------------------|
G|0---0---4---5---6-------4---0--|4---0---4---6-------4---4---4--|
D|-------------------------------|-------------------------------|
A|-------------------------------|-------------------------------|
E|0---0---3---4---5-------3---0--|3---0---3---5-------3---3---3--|
  



e|------- 0---0-- 0------ 0------|------- 0---0-- ----0-- ----0--|
B|--------3---3---3-------3------|--------3---3-------3-------3--|
G|--------1---1---1-------1------|--------1---1-------1-------1--|
D|--------2---2---2-------2------|--------2---2-------2-------2--|
A|--------2---2---2-------2------|--------2---2-------2-------2--|
E|--------0---0---0-------0------|--------0---0-------0-------0--|
  money,  please                  Oh,         yeah    you don't need
         (That's                  what I      want)
e|------- ------- ------- -------|------- ------- ------- -------|
B|-------------------------------|-------------------------------|
G|0---0---4---5---6-------4---0--|4---0---4---6-------4---4---4--|
D|-------------------------------|-------------------------------|
A|-------------------------------|-------------------------------|
E|0---0---3---4---5-------3---0--|3---0---3---5-------3---3---3--|
  


          A7
e|------- 5---5-- ------- 5---5--|------- 5------ ----5-- 5---5--|
B|--------8---8-----------8---8--|--------8-----------8---8---8--|
G|--------6---6-----------6---6--|--------6-----------6---6---6--|
D|--------5---5-----------5---5--|--------5-----------5---5---5--|
A|--------7---7-----------7---7--|--------7-----------7---7---7--|
E|--------5---5-----------5---5--|--------5-----------5---5---5--|
  money                                               Oh, give me
         (That's                  what I      want)
e|------- ------- ------- -------|------- ------- ------- -------|
B|-------------------------------|-------------------------------|
G|0---0---4---5---6-------4---0--|4---0---4---6-------4---4---4--|
D|-------------------------------|-------------------------------|
A|-------------------------------|-------------------------------|
E|0---0---3---4---5-------3---0--|3---0---3---5-------3---3---3--|
  

          E7
e|------- 0---0-- 0------ 0------|------- 0---0-- ----0-- ----0--|   
B|--------3---3---3-------3------|--------3---3-------3-------3--|
G|--------1---1---1-------1------|--------1---1-------1-------1--|
D|--------2---2---2-------2------|--------2---2-------2-------2--|
A|--------2---2---2-------2------|--------2---2-------2-------2--|
E|--------0---0---0-------0------|--------0---0-------0-------0--|
  money                                               That's all I
         (That's                  what I      want)
e|------- ------- ------- -------|------- ------- ------- -------|
B|-------------------------------|-------------------------------|
G|0---0---4---5---6-------4---0--|4---0---4---6-------4---4---4--|
D|-------------------------------|-------------------------------|
A|-------------------------------|-------------------------------|
E|0---0---3---4---5-------3---0--|3---0---3---5-------3---3---3--|



  B7                              A7
e|7-----7 ----7-- ------- -7-----|5------ ----5-- ----5-- 5---5--|
B10----10----10-----------10-----|8-----------8-------8---8---8--|
G|8-----8-----8------------8-----|6-----------6-------6---6---6--|
D|7-----7-----7------------7-----|5-----------5-------5---5---5--|
A|9-----9-----9------------9-----|7-----------7-------7---7---7--|
E|7-----7-----7------------7-----|5-----------5-------5---5---5--|
  want                                    Oh, yeah
         (That's                  what I      want)
e|------- ------- ------- -------|------- ------- ------- -------|
B|-------------------------------|-------------------------------|
G|0---0---4---5---6-------4---0--|4---0---4---6-------4---4---4--|
D|-------------------------------|-------------------------------|
A|-------------------------------|-------------------------------|
E|0---0---3---4---5-------3---0--|3---0---3---5-------3---3---3--|

                                              (.
  E               A       G                   E7
e|0---0-- 0---0-- 5------ 3------|------- ----0-- ------- -------|
B|0---0---0---0---5-------3------|------------3------------------|
G|1---1---1---1---6-------4------|------------1------------------|
D|2---2---2---2---5-------3------|------------2------------------|
A|2---2---2---2---7-------5------|------------2------------------|
E|0---0---0---0---5-------3------|------------0------------------|   
          That's  what I      want
e|------- ------- ------- -------|------- ----0-- ------- -------|
B|-------------------------------|------------5------------------|
G|0---0---4---0---6-------4------|------------7------------------|
D|-------------------------------|------------6------------------|
A|-------------------------------|------------7------------------|
E|0---0---3---0---5-------3------|------------0------------------|    







        B  Bend
        R  Release
        /  slide up
        \  slide down
        H  hammer-on
        P  pull-off
        ~  vibrato
        +  harmonic
        x  Mute note
        . - play note like a dot in standard notation
        ^ - ties two notes together
        (.



           
Добавлено: 15.02.2016
Другие материалы по этой песне:
  • Аккорды и текст

Страница создана 15.02.2016
http://primanota.ru/beatles/with-beatles-ver-2-album-chords.htm
Привет, Гость.
Предлагаем пройти революционный курс по гитаре.
Подарок от PrimaNota.Ru, забирай!