PrimaNota.ru - самый крупный в мире бесплатный архив песенных текстов, аккордов, табулатур и нот


Beatles - Sure To Fall In Love With You - текст песни, таба, бас-таба, видео

Регистрация Запомнить меня
Войти через:  Facebook Google Twitter Vk Yandex Mail.ru

Beatles - Sure To Fall In Love With You - текст песни, таба, бас-таба, видео

Печатать
Просмотров: 382
Уроки эстрадного вокала в Санкт-Петербурге
-------------------------------------------------------------------------------
The Beatles- Sure to Fall (In Love With You)
Live at the BBC

Intro            (tremolo picking)
e|------5---5----5-5-5-5-5-5-5-5-5-5-5-5-7-7-7-7-7-7-9-9-9-7-5--5-5--5-------|
B|------5h7-5h7--5-5-5-5-5-5-5-5-5-5-5-5-7-7-7-7-7-7-9-9-9-7-5--7-7--5-------|
G|---------------6-6-6-6-6-6-6-6-6-6-6-6-7-7-7-7-7-7-9-9-9-7-5--6-6--6-------|
D|---------------------------------------------------------------------------|
A|---------------------------------------------------------------------------|
E|---0-----------------------------------------------------------------0-2-4-|

Verse
e|--------------------------------------------------------------------------|
B|--------------------7--7--7--7--------------------9--9--9--9--------------|
G|-----6--6--6--------7--7--7--7-----6--6--6--6-----9--9--9--9--------------|
D|-----7--7--7--------7--7--7--7-----7--7--7--7-----9--9--9--9--------------|
A|-----7--7--7---4-5--5--5--5--5-----7--7--7--7--7--7--7--7--7--------------|
E|--5--5--5--5-7------------------5--5--5--5--5-----------------------------|

e|---------------------------------------------------------5---5---5--------|
B|--------------------7--7--7--7--------------9--9---------5h7-5h7-5--------|
G|-----6--6--6--------7--7--7--7-----6--6-----9--9-----6-----------6--------|
D|-----7--7--7--------7--7--7--7-----7--7-----9--9-----7--------------------|
A|-----7--7--7---4-5--5--5--5--5-----7--7--7--7--7-----7--------------------|
E|--5--5--5--5-7------------------5--5--5-----------5--5--------------5-4-2-|

Bridge
e|----0--0--0--0-----2--2-----------------------------0--0--0----------------|
B|----0--0--0--0-----3--3-----2--2-----4--4--4--4-----0--0--0----------------|
G|----1--1--1--1-----2--2-----2--2-----4--4--4--4-----1--1--1----------------|
D|----2--2--2--2--0--0--0-----2--2-----4--4--4--4-----2--2--2----------------|
A|----2--2--2--2-----------0--0--0--2--2--2--2--2-----2--2--2----------------|
E|-0--0--0--0--0-----------------------------------0--0--0--0-2-4------------|

Verse
e|--------------------------------------------------------------------------|
B|--------------------7--7--7--7--------------9--9--------------------------|
G|-----6--6--6--------7--7--7--7-----6--6-----9--9-----6--6--6--6-----------|
D|-----7--7--7--------7--7--7--7-----7--7-----9--9-----7--7--7--7-----------|
A|-----7--7--7---4-5--5--5--5--5-----7--7--7--7--7-----7--7--7--7-----------|
E|--5--5--5--5-7------------------5--5--5-----------5--5--5--5--5-----------|

Solo          tremolo picking-------------------------------->
e|---5---5----5-5-5-5-5-5-5-5-5-5-5-5-5-5-5-5-5-5-5-5-5-5-5-5----------------|
B|---5h7-5h7--5-5-5-5-5-5-5-5-5-7-7-7-5-5-5-5-5-5-5-5-5-5-5-5----------------|
G|------------6-6-6-6-6-6-6-6-6-6-6-6-6-6-6-6-6-6-6-6-6-6-6-6----------------|
D|---------------------------------------------------------------------------|
A|---------------------------------------------------------------------------|
E|---------------------------------------------------------------------------|

      tremolo picking------------------->
e|---10--10----10--10\-----5--7--9--8--7---5---5----5--5---5-----------------|
B|---10--10h12-10--10\-----5--7--9--8--7---5h7-5h7--5--5h7-5-----------------|
G|---11--11----11--11\-----6--7--9--8--7------------6--6---6-----------------|
D|---------------------------------------------------------------------------|
A|---------------------------------------------------------------------------|
E|---------------------------------------------------------------------------|

    tremolo picking--->
e|--10--10----10-----5----5--7-/-9--7--5--5---5---5--------------------------|
B|--10--10h12-10-----5----5--7-/-9--7--5--5h7-5h7-5--------------------------|
G|--11--11----11-----6----6--7-/-9--7--6--6---6---6--------------------------|
D|---------------------------------------------------------------------------|
A|---------------------------------------------------------------------------|
E|------------------------------------------------------5-4-2----------------|

Bridge
e|----0--0--0--0-----2--2-----------------------------0--0--0----------------|
B|----0--0--0--0-----3--3-----2--2-----4--4--4--4-----0--0--0----------------|
G|----1--1--1--1-----2--2-----2--2-----4--4--4--4-----1--1--1----------------|
D|----2--2--2--2--0--0--0-----2--2-----4--4--4--4-----2--2--2----------------|
A|----2--2--2--2-----------0--0--0--2--2--2--2--2-----2--2--2----------------|
E|-0--0--0--0--0-----------------------------------0--0--0--0-2-4------------|

Verse
e|---------------------------------------------------------5---5---5--------|
B|--------------------7--7--7--7--------------9--9---------5h7-5h7-5--------|
G|-----6--6--6--------7--7--7--7-----6--6-----9--9-----6-----------6--------|
D|-----7--7--7--------7--7--7--7-----7--7-----9--9-----7-----------7--------|
A|-----7--7--7---4-5--5--5--5--5-----7--7--7--7--7-----7--------------------|
E|--5--5--5--5-7------------------5--5--5-----------5--5--------------------|

Добавлено: 03.03.2012
Другие материалы по этой песне:
  • Аккорды и текст

Страница создана 03.03.2012
http://primanota.ru/beatles/sure-to-fall-in-love-with-you-chords.htm
Привет, Гость.
Предлагаем пройти революционный курс по гитаре.
Подарок от PrimaNota.Ru, забирай!