PrimaNota.ru - самый крупный в мире бесплатный архив песенных текстов, аккордов, табулатур и нот


Beatles - Money Thats What I Want - аккорды и текст, таба, бас-таба, видео

Регистрация Запомнить меня
Войти через:  Facebook Google Twitter Vk Yandex Mail.ru

Beatles - Money Thats What I Want - аккорды и текст, таба, бас-таба, видео

Печатать
Просмотров: 433
Money Thats What I Want
Beatles
Date: Thu, 14 Mar 1996 18:30:44 +0300
From: nfabbro@mag-net.com (nfabbro)
Subject: Money(that's what I want).tab


Artists:  Beatles
Song Title:  Money(that's what I want)
Written by:  Bradfford & Gordy
Album:  Beatlemania
Tabbed by:  Erik Jalava & Jeremy Ball

A---------------------------------|
E---0-0-3-0-5-3-0-3-0-5---5-5-3---|

e---------7-7-7-------5-5-5---------------|
B---------7-7-7-------5-5-5---------------|
G---------8-8-8-------6-6-6---------------|
D---9-9-9-9-9-9-7-7-7-7-7-7---------------|
A---9-9-9-9-9-9-7-7-7-7-7-7---------------|
E---7-7-7-7-7-7-5-5-5-5-5-5-0-0-3-0-5-3-0-|  B5


E5                               A5 E5
The best thing in life are free
                                         B5
You can keep them for the birds and bees      Now give me

Chorus:
A5
Money (that's what I want)
                  E5
That's what I want  (that's what I want)
               B5  A5
That's what I want  (that's what I want)
E5       A5    E5  B5
That's what I want

E5                         A5 E5
You never give me a thrill
                              B5
No lovin' don't pay me bills      Now give me

Chorus:
A5
Money (that's what I want)
                  E5
That's what I want  (that's what I want)
               B5  A5
That's what I want  (that's what I want)
E5       A5    E5  B5
That's what I want


A---------------------------------|
E---0-0-3-0-5-3-0-3-0-5---5-5-3---|

e---------7-7-7-------5-5-5---------------|
B---------7-7-7-------5-5-5---------------|
G---------8-8-8-------6-6-6---------------|
D---9-9-9-9-9-9-7-7-7-7-7-7---------------|
A---9-9-9-9-9-9-7-7-7-7-7-7---------------|
E---7-7-7-7-7-7-5-5-5-5-5-5-0-0-3-0-5-3-0-|  B5


E5                         A5 E5
You never give me a thrill
                              B5
No lovin' don't pay me bills      Now give me


Chorus:
A5
Money (that's what I want)
                  E5
That's what I want  (that's what I want)
               B5  A5
That's what I want  (that's what I want)
E5       A5    E5  B5
That's what I want


Repeat chorus till you get blue in the face

chord definitions:
E5:022XXX
B5:799XXX
A5:577XXX
Добавлено: 08.07.2012
Другие материалы по этой песне:

Страница создана 21.02.2012
http://primanota.ru/beatles/money-thats-what-i-want-chords.htm
Привет, Гость.
Предлагаем пройти революционный курс по гитаре.
Подарок от PrimaNota.Ru, забирай!