PrimaNota.ru - самый крупный в мире бесплатный архив песенных текстов, аккордов, табулатур и нот


Beastie Boys - You Catch a Bad One - текст песни, таба, видео

Регистрация Запомнить меня
Войти через:  Facebook Google Twitter Vk Yandex Mail.ru

Beastie Boys - You Catch a Bad One - текст песни, таба, видео

Печатать
Просмотров: 51
Новый альбом группы 'Черный Кузнец' по культовому сериалу 'Сверхъестественное'!
Due to the strange timing, this is a deceptively difficult song to play.

e|------------------------------|
B|------------------------------|
G|------------------------------|
D|-3h4h5-4-5-4-5-4-3------------|
A|-----------------3-(Ring out)-|
E|-----------------1------------|

e|-------------------|
B|-------------------|
G|-------5--6--6/7---|
D|-8--8--5--6--6/7---| x3
A|-8--8--3--4--4/5---|
E|-6--6--------------|

e|-----------------------------------------|
B|-----------------------------------------|
G|-------------------------------5--6--6/7-|
D|-8--8--7-7-7-7-7-7-7-7-5-5-5-5-5--6--6/7-| 
A|-8--8--7-7-7-7-7-7-7-7-5-5-5-5-3--4--4/5-|
E|-6--6--5-5-5-5-5-5-5-5-3-3-3-3-----------|

e|----------------------------------|
B|----------------------------------|
G|------------------------5--6--6/7-|
D|--7-7-7-7-7-7-7-5-5-5-5-5--6--6/7-| x2
A|--7-7-7-7-7-7-7-5-5-5-5-3--4--4/5-|
E|--5-5-5-5-5-5-5-3-3-3-3-----------|

e|-----------------------------------------------------|
B|-----------------------------------------------------|
G|-------------------------5--6--7--8--9--10--11--12---|
D|--7-7-7-7-7-7-7-55-5-5-5-----------------------------|
A|--7-7-7-7-7-7-7-55-5-5-5-5--6--7--8--9--10--11--12---|
E|--5-5-5-5-5-5-5-33-3-3-3-3--4--5--6--7--8---9---10---|

drums + slight feedback

e|---------------------------------------------------------------------------|
B|---------------------------------------------------------------------------|
G|-10--11--12-12-------5--6--6/7---------5--6--6/7---------5--6--6/7---------|
D|---------------8--8--5--6--6/7---8--8--5--4--6/7---8--8--5--6--6/7---8--8--|
A|-10--11--12-12-8--8--3--4--4/5---8--8--3--4--4/5---8--8--3--4--4/5---8--8--|
E|-8---9---10-10-6--6--------------6--8--------------6--6--------------6--6--|

e|-------------------------------------|
B|------------------------888-999-1010-|
G|-------------------------------------|
D|--7-7-7-7-7-7-7-5-5-5-5--------------| 
A|--7-7-7-7-7-7-7-5-5-5-5--------------|
E|--5-5-5-5-5-5-5-3-3-3-3--------------|

e|----------------------------------|
B|----------------------------------|
G|------------------------5--6--6/7-|
D|--7-7-7-7-7-7-7-5-5-5-5-5--6--6/7-| x2
A|--7-7-7-7-7-7-7-5-5-5-5-3--4--4/5-|
E|--5-5-5-5-5-5-5-3-3-3-3-----------|

e|-----------------------|
B|-----------------------|
G|-----------------------|
D|--7-7-7-7-7-7-7-55-5-5-|
A|--7-7-7-7-7-7-7-55-5-5-|
E|--5-5-5-5-5-5-5-33-3-3-|
Добавлено: 17.04.2018
Другие материалы по этой песне:
  • Аккорды и текст

Страница создана 06.05.2012
http://primanota.ru/beastie-boys/you-catch-a-bad-one-chords.htm
Привет, Гость.
Предлагаем пройти революционный курс по гитаре.
Подарок от PrimaNota.Ru, забирай!