PrimaNota.ru - самый крупный в мире бесплатный архив песенных текстов, аккордов, табулатур и нот


Beastie Boys - Holy Snappers - таба, видео

Регистрация Запомнить меня
Войти через:  Facebook Google Twitter Vk Yandex Mail.ru

Beastie Boys - Holy Snappers - таба, видео

Печатать
Просмотров: 140
Авторы: Adam Yauch, Kate Schellenbach, Michael Diamond, John Berry

Verse Riff
E---------------------------------------------------|
B---------------------------------------------------|
G---------------------------------------------------|
D---5--5--5--5--6--6--6--6--5--5--5--5--3--3--3--3--|
A---5--5--5--5--6--6--6--6--5--5--5--5--3--3--3--3--|
E---3--3--3--3--4--4--4--4--3--3--3--3--1--1--1--1--|

Bridge
E---------------------------------------------------|
B---------------------------------------------------|
G---9--9--9--9--10-10-10-10-11-11-11-11-7--7--7--7--|
D---9--9--9--9--10-10-10-10-11-11-11-11-7--7--7--7--|
A---7--7--7--7--8--8--8--8--9--9--9--9--5--5--5--5--|
E---------------------------------------------------|

Outro
E----------------------------------------------------------X-|
B----------------------------------------------------------X-|
G----------------------------------------------------------X-|
D--5--5--5--5--6--6--6--6--5--5--5--5--3---3---3---3-3-3-5-X-|
A--5--5--5--5--6--6--6--6--5--5--5--5--3---3---3---3-3-3-5-X-|
E--3--3--3--3--4--4--4--4--3--3--3--3--1---1---1---1-1-1-3-X-|

Intro (Random Harmonics)
Verse  x4
Bridge x4
Verse  x4
Bridge x4
Verse  x3
Outro  x1
Добавлено: 03.06.2012
Другие материалы по этой песне:
  • Аккорды и текст

Страница создана 03.06.2012
http://primanota.ru/beastie-boys/holy-snappers-chords.htm
Привет, Гость.
Предлагаем пройти революционный курс по гитаре.
Подарок от PrimaNota.Ru, забирай!