PrimaNota.ru - самый крупный в мире бесплатный архив песенных текстов, аккордов, табулатур и нот


Beartooth - Body Bag - таба, бас-таба, видео

Регистрация Запомнить меня
Войти через:  Facebook Google Twitter Vk Yandex Mail.ru

Beartooth - Body Bag - таба, бас-таба, видео

Печатать
Просмотров: 344
Уроки эстрадного вокала в Санкт-Петербурге
Авторы музыки: Caleb Shomo
Авторы текста: Caleb Shomo
Tuning Drop A# - (A#-F-A#-D#-G-C)

0:10-0:18

C |--------------------|
G |--------------------|
D#|--------------------|
A#|8/7-5/7-8/7-11-11/8-|
F |6/5-3/5-6/5-9-9/6---|
A#|---0-------0-0------| X3

0:18-0:21

C |-------------------------------|
G |-------------------------------|
D#|-------------------------------|
A#|5-5-5-5-5-5-5-5-8-8-8-8-8-8-8-8|
F |5-5-5-5-5-5-5-5-8-8-8-8-8-8-8-8|
A#|5-5-5-5-5-5-5-5-8-8-8-8-8-8-8-8| 

0:32-0:53

C |---------------------------------------------------------------------|
G |---------------------------------------------------------------------|
D#|---------------------------------------------------------------------|
A#|1-P-0-0-0-X-X-X-X-1-P-0-0-0-X-X-X-X-X-X-1-P-0-0-0-X-X-1/4-4-4-1/4-4-4|
F |1-P-0-0-0-X-X-X-X-1-P-0-0-0-X-X-X-X-X-X-1-P-0-0-0-X-X-1/4-4-4-1/4-4-4|
A#|1-P-0-0-0-X-X-X-X-1-P-0-0-0-X-X-X-X-X-X-1-P-0-0-0-X-X-1/4-4-4-1/4-4-4|X2

0:53-1:02
                                   Harm.
C |-------------------------------------|
G |-------------------------------------|
D#|---------------------------------(7)-|
A#|0-----8-8-1-1-0-----8-8-1-1-0--------|
F |0-----8-8-1-1-0-----8-8-1-1-0--------|
A#|0-----8-8-1-1-0-----8-8-1-1-0--------|

1:02-1:24

C |-----------------------------------------------------------------------|
G |-----------------------------------------------------------------------|
D#|-----------------------------------------------------------------------|
A#|0-0-0-0-0-0-0-0-3-3-3-3-3-3-3-3-10-10-10-10-10-10-10-10-5-5-5-5-5-5-5-5|
F |0-0-0-0-0-0-0-0-3-3-3-3-3-3-3-3-10-10-10-10-10-10-10-10-5-5-5-5-5-5-5-5|
A#|0-0-0-0-0-0-0-0-3-3-3-3-3-3-3-3-10-10-10-10-10-10-10-10-5-5-5-5-5-5-5-5|X2

1:44-2:04

C |--------------------------------------------------------------
G |--------------------------------------------------------------
D#|--------------------------------------------------------------
A#|0-0-0--0--0--0-0-0-0-13-12-13-12-13-12-0-0--0--0-X-X-0--0-0-0-
F |0-0-0--0--0--0-0-0-0-13-12-13-12-13-12-0-0--0--0-X-X-0--0-0-0- 
A#|0-0-0--0--0--0-0-0-0-13-12-13-12-13-12-0-0--0--0-X-X-0--0-0-0- 


                    Harm.
C |------------------(4)-----------------------|
G |------------------(4)-----------------------|
D#|------------------(4)-----------------------|
A#|0-0-0--0--0--0-0-0---0-0--0--0-X-X-0--0-0-0-|
F |0-0-0--0--0--0-0-0---0-0--0--0-X-X-0--0-0-0-|
A#|0-0-0--0--0--0-0-0---0-0--0--0-X-X-0--0-0-0-|


2:45-3:05
C |---------------------------------------------------------------------|
G |---------------------------------------------------------------------|
D#|---------------------------------------------------------------------|
A#|1-P-0-0-0-X-X-X-X-1-P-0-0-0-X-X-X-X-X-X-1-P-0-0-0-X-X-1/4-4-4-1/4-4-4|
F |1-P-0-0-0-X-X-X-X-1-P-0-0-0-X-X-X-X-X-X-1-P-0-0-0-X-X-1/4-4-4-1/4-4-4|
A#|1-P-0-0-0-X-X-X-X-1-P-0-0-0-X-X-X-X-X-X-1-P-0-0-0-X-X-1/4-4-4-1/4-4-4|X2


C |------------------------------------------------------------|
G |------------------------------------------------------------|
D#|------------------------------------------------------------|
A#|1-P-0-0-0------1-P-0-0-0------1-P-0-0-0------1/4-4-4-1/4-4-4|
F |1-P-0-0-0------1-P-0-0-0------1-P-0-0-0------1/4-4-4-1/4-4-4|
A#|1-P-0-0-0------1-P-0-0-0------1-P-0-0-0------1/4-4-4-1/4-4-4|X2

3:05-3:14

C |--------------------------|
G |--------------------------|
D#|--------------------------|
A#|0-0-----3-3-----10-10-----|
F |0-0-----3-3-----10-10-----|
A#|0-0-----3-3-----10-10-----|

3:38-3:54

C |--------(4)-------------------(4)---------------------(4)------------|
G |--------(4)-------------------(4)---------------------(4)------------|
D#|--------(4)-------------------(4)---------------------(4)------------|
A#|8/7-5/7----0--0--0-0-0-8/7-5/7----0--0--0-0-0-8/7-5/7----0--0--0-0-0-|
F |6/5-3/5----0--0--0-0-0-6/5-3/5----0--0--0-0-0-6/5-3/5----0--0--0-0-0-|
A#|---0---0---0--0--0-0-0----0---0---0--0--0-0-0----0---0---0--0--0-0-0-|

C |-------------------------------|
G |-------------------------------|
D#|-------------------------------|
A#|5-5-5-5-5-5-5-5-8-8-8-8-8-8-8-8|
F |5-5-5-5-5-5-5-5-8-8-8-8-8-8-8-8|
A#|5-5-5-5-5-5-5-5-8-8-8-8-8-8-8-8|
Добавлено: 27.10.2014
Другие материалы по этой песне:

Страница создана 07.08.2014
http://primanota.ru/beartooth/body-bag-chords.htm
Привет, Гость.
Предлагаем пройти революционный курс по гитаре.
Подарок от PrimaNota.Ru, забирай!