PrimaNota.ru - самый крупный в мире бесплатный архив песенных текстов, аккордов, табулатур и нот


Barry White - Youre My First My Last My Everything - аккорды и текст, видео

Регистрация Запомнить меня
Войти через:  Facebook Google Twitter Vk Yandex Mail.ru

Barry White - Youre My First My Last My Everything - аккорды и текст, видео

Печатать
Просмотров: 186
Youre My First My Last My Everything
Barry White
You're My First My Last My Everything



(spoken section)
We got it together didn't we?
We definitely got our thing together don't we baby?
Isn't that nice?
I mean really, when you really sit and think about it
Isn't it really, really nice?
I could easily feel myself slipping more and more away to
That simple world of my own
Nobody but you and me
We got it together baby


    F
E----------------------------------------------------------------------
B-------------------------------------------1--1-------------1---------
G------2-------2-2---------2---01h2h--2--2--2--2--2----2--2--2---01h2h--
D--3-3-3---3-3-3-3-3---3-3-3----------3--3--3--3--3----3--3--3---------
A----------------------------------------------------------------------
E--1-1-1---1-1-1-1-1---1-1-1----------1--1--1--1--1----1--1--1----------


E---------1-1---------1----------1--1--1--1--1----1--1--1------
B-----1-1-1-1-1---1-1-1----------1--1--1--1--1----1--1--1-----
G-----2-2-2-2-2---2-2-2---01h2h--2--2--2--2--2----2--2--2------
D-----3-3-3-3-3---3-3-3----------3--3--3--3--3----3--3--3-----
A-------------------------------------------------------------
E-----1-1-1-1-1---1-1-1----------1--1--1--1--1----1--1--1-----
 (repeat)


E--------------------------------------------------------------------
B----1-1-1-1---1---1-1-1-1---1--1-1-1-1-1----1-1--1-1-1-1---1-1--1-1--
G--------------------------------------------------------------------
D--------------------------------------------------------------------
A----3-3-3-3---3---3-3-3-3---3--3-3-3-3-3----3-3--1-1--0-0------------
E-----------------------------------------------------------3-3--1-1--



F               F7M        Dm7
You're my first my last my everything

Fmaj9                F9           Bb7M  
     And the an swer    to all my dreams.

Gm7            C7      Am7            Dm7
You're my sun, my moon,    my guiding star.

G7                        Bbm                      Bbm C7
    My kind of wonderful,      that's what you are

F      F7M                Dm7
I know there's only, only one like you.

Fmaj9                F9                      Bb
     There's no way,    they could have made two

               Bbm6
You're all I'm living for,

Am7                     D7
Your love I'll keep for evermore,

G7                C7                  F
You're the first, you're the last, my everything.




In you I've found so many things
A love so new only you could bring
Can't you see if you,
You'll make me feel this way.
You're like a first morning dew on a brand new day.

I see so many way that I can love you,
Till the day I die.
You're my reality, yet I'm lost in a dream.
You're the first, the last, my everything

*** Instrumental same as verse***

I know there's only, only one like you.
There's no way they could have made two.
Girl you're my reality
But I'm lost in a dream
You're the first, you're the last, my everything

chart and transcription by Peter Kruger  casparus60@yahoo.com

Добавлено: 29.12.2015
Другие материалы по этой песне:
  • Аккорды и текст

Страница создана 29.12.2015
http://primanota.ru/barry-white/youre-my-first-my-last-my-everything-chords.htm
Привет, Гость.
Предлагаем пройти революционный курс по гитаре.
Подарок от PrimaNota.Ru, забирай!