PrimaNota.ru - самый крупный в мире бесплатный архив песенных текстов, аккордов, табулатур и нот


Barclay James Harvest - Love Is Like A Violin - аккорды и текст, видео

Регистрация Запомнить меня
Войти через:  Facebook Google Twitter Vk Yandex Mail.ru

Barclay James Harvest - Love Is Like A Violin - аккорды и текст, видео

Печатать
Просмотров: 142
Уроки эстрадного вокала в Санкт-Петербурге
Love Is Like A Violin
Barclay James Harvest
                                          Artist - Barclay James Harvest
                                         ********************************
                                           Song - Love Is Like A Violin
                                          ******************************
                                               Album - Gone To Earth
                                              ***********************
                                                Tabbed By - Ayreon77
                                               **********************


INTRO
******

e|-------------12--10-|-------------12--10--12-|-------------12--10---------|
B|---7--8--10--12--10-|---7--8--10--12--10--12-|---7--8--10--12--10--12--10-|
G|---7--9--11---------|---7--9--11-------------|---7--9--11----------12--11-|
D|-0------------------|-0----------------------|-0--------------------------|
A|--------------------|------------------------|----------------------------|
E|--------------------|------------------------|----------------------------|


----------------------------
RIFF 1
PICKING PATTERN this is just an example of the picking, just follow the chords with the lyrics.
****************
  D
e|-------3---------|-------3---------|-------3---------|-------3---------|
B|-----3---3-------|-----3---3-------|-----3---3-------|-----3---3-------|
G|---2-------2---2-|---2-------2---2-|---2-------2---2-|---2-------2---2-|
D|-0-----------0---|-0-----------0---|-0-----------0---|-0-----------0---|
A|-----------------|-----------------|-----------------|-----------------|
E|-----------------|-----------------|-----------------|-----------------|


PICKING through VERSE 1 and 2
  G                 D                 Em                D
e|-------3---------|-------3---------|-------0---------|-------2---------|
B|-----3---3-------|-----3---3-------|-----0---0-------|-----3---3-------|
G|---0-------0---0-|---2-------2---2-|---0-------0---0-|---2-------2---2-|
D|-0-----------0---|-0-----------0---|-2-----------2---|-0-----------0---|
A|-----------------|-----------------|-----------------|-----------------|
E|-----------------|-----------------|-----------------|-----------------|


----------------------------
VERSE 1 - Picking
********
G               D       G                D
Love was like a violin, playing soft and low
G                 D                 G               D
In your heart you held the strings, in my heart the bow
Em               D                 Em          D
Together we made soft sweet music, together we believed
Em               D              Em            D
In every day, in every hour our love was everything


RIFF 1
*******
----------------------------
VERSE 2 - Picking
********
G               D                G                D
You were like a mountain stream, flowing fast and free
G                 D             G               D
You were like the autumn leaves blowing from my tree
Em               D                 Em          D
Together we made soft sweet music, together we believed
Em               D              Em            D           Em
In every day, in every hour our love was everything, everything



----------------------------
CHORUS - Strum
*******
G     D      Am       Em    G     D        Am
First dance, you were mine, first dance we made it
G    D      Am   Em      G   D       Am            Em
Last dance, last chance, you know, I know you were wrong
    Am             Em
You know, you were wrong
    G              D                 Am
You know for every feelin' there's a song


RIFF 1
*******
----------------------------
VERSE 3
********
G             D                G               D
After all the leaves had gone, you were winter snow
G                    D         G                D
You were so cold and far away, I had to let you go
Em               D                 Em          D
Together we made soft sweet music, together we believed
Em               D              Em            D           Em          
In every day, in every hour our love was everything, everything 



----------------------------
CHORUS
*******
G     D      Am       Em    G     D        Am
First dance, you were mine, first dance we made it
G    D      Am   Em      G   D       Am            
Last dance, last chance, you know, I know 
G     D      Am       G     D              Am
First dance, you were mine, first dance we made it
G    D      Am   Em      G   D       Am            
Last dance, last chance, you know, I know

    Am             D
You know, you were wrong
    Am             D
You know, you were wrong
    G              D                 Am
You know for every feelin' there's a song


----------------------------
OUTRO
******
                                              s
e|-------------12--10-|-------------12--10--12\10-|-------------12--10--7-----|
B|---7--8--10--12--10-|---7--8--10--12--10--12\10-|---7--8--10--12--10--7--10-|
G|---7--9--11---------|---7--9--11----------------|---7--9--11-------------11-|
D|-0------------------|-0-------------------------|-0-------------------------|
A|--------------------|---------------------------|---------------------------|
E|--------------------|---------------------------|---------------------------|



ENJOY...........
Добавлено: 05.12.2015
Другие материалы по этой песне:
  • Аккорды и текст

Страница создана 24.03.2012
http://primanota.ru/barclay-james-harvest/love-is-like-a-violin-chords.htm
Привет, Гость.
Предлагаем пройти революционный курс по гитаре.
Подарок от PrimaNota.Ru, забирай!