PrimaNota.ru - самый крупный в мире бесплатный архив песенных текстов, аккордов, табулатур и нот


Bad Religion - Strange Denial - аккорды и текст, таба, видео

Регистрация Запомнить меня
Войти через:  Facebook Google Twitter Vk Yandex Mail.ru

Bad Religion - Strange Denial - аккорды и текст, таба, видео

Печатать
Просмотров: 172
Strange Denial
Bad Religion
Acoustic chords for "Strange Denial" by Bad Religion


Intro:
e|---------------------------------------------------------------------| 
B|---------------------------------------------------------------------| 
G|---------------------------------------------------------------------| 
D|--4-4-4-4--2--0----------4-4-4-4--2--0----------4-4-4-4--2--0--------| 
A|-----------------4--0-------------------4--0-------------------4--0--| 
E|---------------------------------------------------------------------| 

e|----------------------------------------------| 
B|----------------------------------------------| 
G|----------------------------------------------| 
D|--4-4-4-4--2--0----------4-4-4-4--2--0--------| 
A|-----------------4--0-------------------4--0--| 
E|----------------------------------------------| 

e|------------------------------------------| 
B|------------------------------------------| 
G|------------------------------------------| 
D|------------------------------------------| 
A|--4\2-2-2-2-2-2-2-2--4h5p4h5p4h5p4h5p4h5--| 
E|------------------------------------------| 

Verse 1:
Bm      F#              
A mutinous enemy carved a nascent country   ] This part you must play quietly.
G                                  
Sweat, blood, and valor                     ] This part you must play quietly.
D                     A   
Forms the grit of our history               } From here and next you can play as loud as you want =)
Bm      
Beqeathed to everyone:
F#
Chance and free expression
G
Substance was restrained
D                  A 
And the spirit was broken                   {Pause break}

Chorus 1:
Bm F#  G         D  A
I feel a strange denial
Bm           F#
Rythmic as a change
G            A
Constance as time
Bm  F#
Lonely
G         D   A
Insistent whispers
Bm          F#   G
Somber as a wave bye bye
D   A
Bye bye


Verse 2:
Bm                      F#
Searching for solution, without constitution
G
Blackcoats by our sides
D         A
Promising salvation
Bm               F#
Advocating dogma as tickets to hereafter
G
Mortals in their prime
D                    A
With their desperate hands in the air


Chorus 2:
Bm   F#
Daunting
G       D   A
Complex and burning
Bm         F#
Rythmic as change
G           A
Constant as time
Bm F#
Conflicts
G       D    A
Craving approval
Bm          F#       G
Weighted as a murder trial
D           A       Bm
Oh I feel a strange denial

Solo:
Bm   F#
Bm   A
Bm   F#
Bm   A

Verse 3:
Bm
Correct is Consensus              ] This part you must play quietly.
F#
Everything else, nonsense         ] This part you must play quietly.
G
Forward is the hope               ] This part you must play quietly.
D      A
Forget recompense
Bm                     F#
Peace and tranquility is only for the wealthy
G
Dearth for the massses
D      A
And inequality                     {Pause break}


Chorus 3:
Bm F#  G         D  A
I feel a strange denial
Bm           F#
Rythmic as a change
G            A
Constance as time
Bm  F#
Lonely
G         D   A
Insistent whispers
Bm          F#     G
Dissipating in the night
D           A         Bm
Like a lone forgotten light

Outro:
Bm   F#
Bm   A
Bm                    A
And no one is helping me
Bm             F#
It's a strange denial
Bm   F#
Bm   A
Добавлено: 07.10.2015
Другие материалы по этой песне:

Страница создана 13.03.2012
http://primanota.ru/bad-religion/strange-denial-chords.htm
Привет, Гость.
Предлагаем пройти революционный курс по гитаре.
Подарок от PrimaNota.Ru, забирай!