PrimaNota.ru - самый крупный в мире бесплатный архив песенных текстов, аккордов, табулатур и нот


Bad Religion - Queen Of The 21st Century - аккорды и текст, видео

Регистрация Запомнить меня
Войти через:  Facebook Google Twitter Vk Yandex Mail.ru

Bad Religion - Queen Of The 21st Century - аккорды и текст, видео

Печатать
Просмотров: 118
Queen Of The 21st Century
Bad Religion
Artist: BAD RELIGION
Song: Queen Of The 21st Century
Album: The New America (Japanese Version / European Re-Relase)
Tuning: Standard (EADGBE)

Chords:

   D5  F5   C5  G5
e|---|----|---|---|
B|---|----|---|---|
G|-7-|-10-|-5-|---|
D|-7-|-10-|-5-|-5-|
A|-5-|--8-|-3-|-5-|
E|---|----|---|-3-|


---INTRO:

(Palm muted)

D5 F5 C5 G5 (Fill1)

Fill1: (Guitar 1)
e|-----------------|
B|-----------------|
G|-----------------|
D|-----------------|
A|-7-5---------7-5-|
E|-----7-5-7/9-----|


---VERSE 1:

         D5             F5
From the time she could crawl

        C5            G5 (Fill1)
She was all draped in macrame.

        D5            F5
She was preened and redeemed

     C5                   G5 (Fill1)
In a church that tried to show the way.


(Guitar 2 plays open chords)


Fill2: (Guitar 2)
   G5
e|-----------------|
B|-----------------|
G|-----------------|
D|-5-----------5---|
A|-5-------5-7-----|
E|-3---------------|

(Fill1 and Fill2 are in the same bar)


D5                F5            C5     G5 (Fill1) (Fill2)
She was taught to never ask for more,

D5           F5              C5     G5 (Fill1) (Fill2)
They had no idea of what she had in store.


---CHORUS: (Guitar 1 and 2 plays open chords)

          D5           F5   C5    G5
She's the queen of the 21st century,

       D5                F5                C5                 G5
Just a ghost of what her parents thought a little girl should be:

       D5            F5             C5     G5
Analog heart, analog nerves, analog brain,

      D5             F5        C5     G5
But a fixture of the digital domain.


---INTERLUDE:

   D5                F5                C5                G5
e|-----------------|-----------------|-----------------|-----------------|
B|-15b17-----------|-13~-------------|-13--------------|-----------------|
G|-----------------|---------12------|---------14--12--|-----------------|
D|---------14b16---|-----------------|-----------------|-12~---------12\-|
A|-----------------|-----------------|-----------------|-----------------|
E|-----------------|-----------------|-----------------|-----------------|

         
---VERSE 2: (Guitar 1 plays the fig, guitar 2 like verse 1)

Fig:
   D5                F5                C5                G5
e|-----------------|-----------------|-----------------|-----------------|
B|-----------------|-----------------|-----------------|-----------------|
G|---------7-7-----|---------1010----|---------5-5-----|-----------------|
D|-7-7-7-7-7-7-7-7-|-1010101010101010|-5-5-5-5-5-5-5-5-|---------5-5-----|
A|-5-5-5-5-5-5-5-5-|-8-8-8-8-8-8-8-8-|-3-3-3-3-3-3-3-3-|-5-5-5-5-5-5-5-5-|
E|-----------------|-----------------|-----------------|-3-3-3-3-3-3-3-3-| 4x
  |--P.M.-|   |-----P.M.----|   |-----P.M.----|   |-----P.M.----|    P.M.


         D5             F5
From the time she could read

          C5                   G5
She could see that there was urgency,

     D5           F5           C5
No debate, just a spate of ignorance

                    G5
In a splintering community.

D5              F5              C5  G5 (Fill2)
She could never meet their expectations,

D5               F5            C5  G5 (Fill2)
Then she came to symbolize the nation.


---CHORUS:

          D5           F5   C5    G5
She's the queen of the 21st century,

       D5                F5                C5                 G5
Just a shred of what her parents thought a little girl should be:

           D5                F5                C5   G5
Steeped in spite, coddled in fear, drenched in novelty,

    D5           F5          C5   G5
But masterful at sensual technology.


---INTERLUDE:

(Play 2x)
   D5                        F5
e|-------------------------|-------------------------|
B|-------------------------|-------------------------|
G|-11-11-11-11-11-11-11-11-|-14-14-14-14-14-14-14-14-|
D|-12-12-12-12-12-12-12-12-|-15-15-15-15-15-15-15-15-|
A|-------------------------|-------------------------|
E|-------------------------|-------------------------|

   C5                        G5
e|-------------------------|-------------------------|
B|-------------------------|-------------------------|
G|--9--9--9--9--9--9--9--9-|-------------------------|
D|-10-10-10-10-10-10-10-10-|--9--9--9--9--9--9--9--9-|
A|-------------------------|-10-10-10-10-10-10-10-10-|
E|-------------------------|-------------------------|


---BRIDGE:

          D5    G5   D5    C5
She's the queen!

          D5    G5  D5             C5
She's the queen, no rules in her empire.

          D5    G5      D5         C5
She's the queen, just libido and desire.

          D5          G5
She's the lean, mean, fighting machine,

    D5                    C5
The stuff of modern media lore

        D5     C5        F5
And she always knows the score.


---SOLO: (I'm not very sure if i'ts right)

(When the solo's wrong, than figure by yourself)

   D5                        F5
e|-------------------------|-------------------------|
B|-------------------------|-------------------------|
G|-14-14-14-14b16b14~~-----|-11-11-11-11b13b11-------|
D|-15-15-15-15----15~~-----|-12-12-12-12----12-------|
A|-------------------------|-------------------------|
E|-------------------------|-------------------------|

   C5                           G5
e|----------------------------|-----------------------------|
B|----------------------------|-----------------------------|
G|-12-10b12-13----------------|-----------------------------|
D|-------------12~~--------10-|-----------------------------|
A|-------------------10-12----|-12-10-8-10b12-8-------------|
E|----------------------------|-----------------12b14-12-10-|

   D5                        F5
e|-----------------------|-------------------------|
B|-----------------------|-------------------------|
G|-----------------------|-14----------------------|
D|--------------------12-|----12-10-10~~-----------|
A|------------14--12-----|-------------------------|
E|-10--12--14------------|-------------------------|

   C5                        G5
e|-------------------------|-------------------------|
B|-------------------------|-------------------------|
G|-------------------------|-------------------------|
D|----16///14///12///10///_|_14----------------------|
A|-14----------------------|----14///12///10///9///--|
E|-------------------------|-------------------------|


---CHORUS:

          D5           F5   C5   G5
She's the queen of the 21st century,

       D5                F5                C5                 G5
Just a ghost of what her parents thought a little girl should be:

       D5              F5
Fallen star, black and blue,

       C5             G5
Broken hearts, wasted youth,

       D5            F5
Rusted cars, twisted roots,

       C5              G5
Mental scars, the ugly truth.


---INTERLUDE:

(Play 4x)
   D5                        F5
e|-------------------------|-------------------------|
B|-------------------------|-------------------------|
G|-11-11-11-11-11-11-11-11-|-14-14-14-14-14-14-14-14-|
D|-12-12-12-12-12-12-12-12-|-15-15-15-15-15-15-15-15-|
A|-------------------------|-------------------------|
E|-------------------------|-------------------------|

   C5                        G5
e|-------------------------|-------------------------|
B|-------------------------|-------------------------|
G|--9--9--9--9--9--9--9--9-|-------------------------|
D|-10-10-10-10-10-10-10-10-|--9--9--9--9--9--9--9--9-|
A|-------------------------|-10-10-10-10-10-10-10-10-|
E|-------------------------|-------------------------|


---OUTRO: (Play the interlude riff 3 times)

          D5           F5   C5   G5
She's the queen of the 21st century

          D5           F5   C5   G5
She's the queen of the 21st century

            D5             F5
And she's a modern-day polemic,

          C5       G5
A walking controversy.


(Play this riff 3x)
   D5                      F5
e|-----------------------|-------------------------|
B|-----------------------|-------------------------|
G|-----------------------|-------------------------|
D|-----------------------|-12-14~~-----14-14-14-14-|
A|-10--12--14-10--12--14-|-------------------------|
E|-----------------------|-------------------------|

   C5                        G5
e|-------------------------|-------------------------|
B|-------------------------|-------------------------|
G|-------------------------|-------------------------|
D|-------------------------|-------------------------|
A|-15-15-15-15-14-14-14-14-|-12~~--------------------|
E|-------------------------|-------------------------|


          D5           F5   C5   G5
She's the queen of the 21st century

          D5           F5   C5   G5
She's the queen of the 21st century

(Slow down until the end)

          D5           F5   C5   G5
She's the queen of the 21st century

          D5
She's the queen!


THE END
Добавлено: 03.04.2012
Другие материалы по этой песне:
  • Аккорды и текст

Страница создана 03.04.2012
http://primanota.ru/bad-religion/queen-of-the-21st-century-chords.htm
Привет, Гость.
Предлагаем пройти революционный курс по гитаре.
Подарок от PrimaNota.Ru, забирай!