PrimaNota.ru - самый крупный в мире бесплатный архив песенных текстов, аккордов, табулатур и нот


Bad Religion - Fields Of Mars - текст песни, таба, бас-таба, видео

Регистрация Запомнить меня
Войти через:  Facebook Google Twitter Vk Yandex Mail.ru

Bad Religion - Fields Of Mars - текст песни, таба, бас-таба, видео

Печатать
Просмотров: 167
Уроки эстрадного вокала в Санкт-Петербурге
Авторы музыки: Greg Graffin, Brett Gurewitz
Авторы текста: Greg Graffin, Brett Gurewitz
                                 FIELDS OF MARS
                           As recorded by Bad Religion
                     (From the 2007 Album NEW MAPS OF HELL)

Words and Music by Greg Graffin
Arranged by Bad Religion
Transcribed by Spidey255

Gtr I (E A D G B E) - 'Rhythm'
Gtr II (E A D G B E) - 'Leads'
Gtr III (E A D G B E) - 'Piano'

 Intro
  Q=84
  G                 F/G               Am                D
 4/4
  Gtr III
  Q   Q  Q   E  E   Q   Q  Q   E  E   Q   Q  Q   E  E   Q   Q  Q   E  E
|-7---7--7---7----|-5---5--5---5----|-0---0--0---0----|-2---2--2---2-----|
|-8---8--8---8----|-6---6--6---6----|-1---1--1---1----|-3---3--3---3-----|
|-----------------|-----------------|-----------------|------------------|
|-----------------|-----------------|-----------------|-0---------(0)-0--|
|-----------------|-----------------|-0---------(0)-0-|------------------|
|-3---------(3)-3-|-3---------(3)-3-|-----------------|------------------|
  H.        +E  E   H.        +E  E   H.        +E  E   H.        +E  E


  Q=161
  G5
  Gtr I
   E     E +S  S E   E    E          E   E    E  E +S  S E E E   E   E
|------------------------------------------|---------------------------|
|------------------------------------------|---------------------------|
|------------------------------------------|---------------------------|
|--5-----5-(5)-5-5---5----5----------5---5-|--5--5-(5)-5-5-5-5---5---5-|
|--5-----5-(5)-5-5---5----5----------5---5-|--5--5-(5)-5-5-5-5---5---5-|
|--3-----3-(3)-3-3---3----3----------3---3-|--3--3-(3)-3-3-3-3---3---3-|
|
| Gtr II
|  ~~~~~~~~~~~~~~~~~~~~~~~~~         ~~~~~~~~~~~~~~~~~~~~~~~~~~~~~~~~
|  H                +E    S  S      +Q        H.                +Q
|------------------------------------------|---------------------------|
|-15b17============(15)r-15-15b17==(15)r---|-15----------------(15)\---|
|------------------------------------------|---------------------------|
|------------------------------------------|---------------------------|
|------------------------------------------|---------------------------|
|------------------------------------------|---------------------------|


  F5
   E  E  +S  S  E  E  E   E   E        E    E   +S  S E E  E     E  E
|----------------------------------|----------------------------------|
|----------------------------------|----------------------------------|
|----------------------------------|----------------------------------|
|--3--3--(3)-3--3--3--3---3---3----|---3----3---(3)-3-3-3--3-----3--3-|
|--3--3--(3)-3--3--3--3---3---3----|---3----3---(3)-3-3-3--3-----3--3-|
|--1--1--(1)-1--1--1--1---1---1----|---1----1---(1)-1-1-1--1-----1--1-|
|
|  E  E  +E     E  E  E  +E   E       +E   +E   +Q.        S  S  E  E
|----------------------------------|----------------------------------|
|--------------------15-(15)-------|----------------------------------|
|-12-12-(12)---14-16---------14b16-|-(14)-(14)-(14)-------------12-12-|
|----------------------------------|----------------------12-14-------|
|----------------------------------|----------------------------------|
|----------------------------------|----------------------------------|


  E5
   E E +S  S  E   E   E        E  E    E  E +S  S  E   E   E  E  E
|-----------------------------------|------------------------------|
|-----------------------------------|------------------------------|
|--9-9-(9)-9--9---9---9--------9--9-|--9--9-(9)-9--9---9---9--9--9-|
|--9-9-(9)-9--9---9---9--------9--9-|--9--9-(9)-9--9---9---9--9--9-|
|--7-7-(7)-7--7---7---7--------7--7-|--7--7-(7)-7--7---7---7--7--7-|
|-----------------------------------|------------------------------|
|
|  ~~
|                     |--3--|
|  Q    E     E  +E   S  S  S  E  E    E  E  E     E  +E   E  E  E
|-----------------------------------|------------------------------|
|-----------------------------------|------------------------------|
|-12---------12-(12)----------------|------------------------------|
|------14------------14-12----12----|-12----12----14-(14)-12----12-|
|--------------------------14----14-|----14------------------14----|
|-----------------------------------|------------------------------|


  D5
   E  E +S  S  E  E E  E     E    E     E    +S  S  E  E E  E E
|------------------------------|--------------------------------|
|------------------------------|--------------------------------|
|--7--7-(7)-7--7--7-7--7-----7-|--7-----7----(7)-7--7--7-7--7-7-|
|--7--7-(7)-7--7--7-7--7-----7-|--7-----7----(7)-7--7--7-7--7-7-|
|--5--5-(5)-5--5--5-5--5-----5-|--5-----5----(5)-5--5--5-5--5-5-|
|------------------------------|--------------------------------|
|
|  E  E  E     E  Q    S  S  E    S  S  S  S  E     E  E E  Q
|------------------------------|--------------------------------|
|------------------------------|---------------------------10---|
|------------------------------|-14-16-14-12-11----------9------|
|------------------------------|-------------------12-10--------|
|-14-12---------------------12-|--------------------------------|
|-------15----12-15---12-15----|--------------------------------|


   Verse
    G5
      E  E +S  S E E E E E     E  E +S  S E E E E E
||-------------------------|------------------------|
||o------------------------|------------------------|
||-------------------------|------------------------|
||----5--5-(5)-5-5-5-5-5-5-|---5--5-(5)-5-5-5-5-5-5-|
||o---5--5-(5)-5-5-5-5-5-5-|---5--5-(5)-5-5-5-5-5-5-|
||----3--3-(3)-3-3-3-3-3-3-|---3--3-(3)-3-3-3-3-3-3-|
|
|     W                       +W
||-------------------------|------------------------|
||o------------------------|------------------------|
||--(12)-------------------|-(12)-------------------|
||-------------------------|------------------------|
||o------------------------|------------------------|
||-------------------------|------------------------|


  F5
    E   E  +S   S  E  E  E  E  E     E   E  +S   S  E  E  E  E  E
|--------------------------------|---------------------------------|
|--------------------------------|---------------------------------|
|--10--10-(10)-10-10-10-10-10-10-|--10--10-(10)-10-10-10-10-10-10--|
|--10--10-(10)-10-10-10-10-10-10-|--10--10-(10)-10-10-10-10-10-10--|
|---8---8--(8)--8--8--8--8--8--8-|---8---8--(8)--8--8--8--8--8--8--|
|--------------------------------|---------------------------------|
|
|  +W                               +W
|--------------------------------|---------------------------------|
|--------------------------------|---------------------------------|
|-(12)---------------------------|-(12)----------------------------|
|--------------------------------|---------------------------------|
|--------------------------------|---------------------------------|
|--------------------------------|---------------------------------|


  Em
   E   E  +S   S   E   E   E   E   E     E   E  +S   S   E   E   E   E   E
|-------------------------------------|-------------------------------------|
|-(8)-(8)-(8)-(8)-(8)-(8)-(8)-(8)-(8)-|-(8)-(8)-(8)-(8)-(8)-(8)-(8)-(8)-(8)-|
|--9---9--(9)--9---9---9---9---9---9--|--9---9--(9)--9---9---9---9---9---9--|
|--9---9--(9)--9---9---9---9---9---9--|--9---9--(9)--9---9---9---9---9---9--|
|--7---7--(7)--7---7---7---7---7---7--|--7---7--(7)--7---7---7---7---7---7--|
|-------------------------------------|-------------------------------------|


  D5
  E E +S  S E E E E E   E E +S  S E E E E E
|---------------------|----------------------||
|---------------------|---------------------o||
|-7-7-(7)-7-7-7-7-7-7-|-7-7-(7)-7-7-7-7-7-7--||
|-7-7-(7)-7-7-7-7-7-7-|-7-7-(7)-7-7-7-7-7-7--||
|-5-5-(5)-5-5-5-5-5-5-|-5-5-(5)-5-5-5-5-5-5-o||
|---------------------|----------------------||


 Pre-Chorus
  $
  $$
  C5                    D5
  E E S S E E E S S E   E E S S E E E S S E
|---------------------|---------------------|
|---------------------|---------------------|
|-5-5-5-5-5-5-5-5-5-5-|-7-7-7-7-7-7-7-7-7-7-|
|-5-5-5-5-5-5-5-5-5-5-|-7-7-7-7-7-7-7-7-7-7-|
|-3-3-3-3-3-3-3-3-3-3-|-5-5-5-5-5-5-5-5-5-5-|
|---------------------|---------------------|


  Em
   E   E   S   S   E   E   E   S   S   E     E   E   S   S   E   E   E   S   S   E
|-----------------------------------------|------------------------------------------|
|-(8)-(8)-(8)-(8)-(8)-(8)-(8)-(8)-(8)-(8)-|-(8)-(8)-(8)-(8)-(8)-(8)-(8)-(8)-(8)-(8)--|
|--9---9---9---9---9---9---9---9---9---9--|--9---9---9---9---9---9---9---9---9---9---|
|--9---9---9---9---9---9---9---9---9---9--|--9---9---9---9---9---9---9---9---9---9---|
|--7---7---7---7---7---7---7---7---7---7--|--7---7---7---7---7---7---7---7---7---7---|
|-----------------------------------------|------------------------------------------|


    C5                    D5
    E E S S E E E S S E   E E S S E E E S S E
||----------------------|---------------------|
||o---------------------|---------------------|
||--5-5-5-5-5-5-5-5-5-5-|-7-7-7-7-7-7-7-7-7-7-|
||--5-5-5-5-5-5-5-5-5-5-|-7-7-7-7-7-7-7-7-7-7-|
||o-3-3-3-3-3-3-3-3-3-3-|-5-5-5-5-5-5-5-5-5-5-|
||----------------------|---------------------|


                                           1.                      2.
  Em                                        G5
                                                                              PM----|
   E   E   S   S   E   E   E   S   S   E    E E S S E E E S S E     E E S S E E E E E
|-----------------------------------------|----------------------||--------------------|
|-(8)-(8)-(8)-(8)-(8)-(8)-(8)-(8)-(8)-(8)-|---------------------o||--------------------|
|--9---9---9---9---9---9---9---9---9---9--|----------------------||--------------------|
|--9---9---9---9---9---9---9---9---9---9--|-5-5-5-5-5-5-5-5-5-5--||-5-5-5-5-5----------|
|--7---7---7---7---7---7---7---7---7---7--|-5-5-5-5-5-5-5-5-5-5-o||-5-5-5-5-5-5-5-5-5--|
|-----------------------------------------|-3-3-3-3-3-3-3-3-3-3--||-3-3-3-3-3-3-3-3-3--|


  F5
  E E S S E E E S S E   E E S S E E E S S E
|---------------------|---------------------|
|---------------------|---------------------|
|---------------------|---------------------|
|-3-3-3-3-3-3-3-3-3-3-|-3-3-3-3-3-3-3-3-3-3-|
|-3-3-3-3-3-3-3-3-3-3-|-3-3-3-3-3-3-3-3-3-3-|
|-1-1-1-1-1-1-1-1-1-1-|-1-1-1-1-1-1-1-1-1-1-|


                              To Dbl. Coda
  C5
  E E S S E E E S S E   E E S S E E E S S E
|---------------------|----------------------|
|---------------------|----------------------|
|-5-5-5-5-5-5-5-5-5-5-|-5-5-5-5-5-5-5-5-5-5--|
|-5-5-5-5-5-5-5-5-5-5-|-5-5-5-5-5-5-5-5-5-5--|
|-3-3-3-3-3-3-3-3-3-3-|-3-3-3-3-3-3-3-3-3-3--|
|---------------------|----------------------|


   Chorus
    G5                    F5
    E E S S E E E S S E   E E S S E E E S S E
||----------------------|---------------------|
||o---------------------|---------------------|
||----------------------|---------------------|
||--5-5-5-5-5-5-5-5-5-5-|-3-3-3-3-3-3-3-3-3-3-|
||o-5-5-5-5-5-5-5-5-5-5-|-3-3-3-3-3-3-3-3-3-3-|
||--3-3-3-3-3-3-3-3-3-3-|-1-1-1-1-1-1-1-1-1-1-|


                                   To Coda
  C5
  E E S S E E E S S E   E E S S E E E S S E
|---------------------|----------------------||
|---------------------|---------------------o||
|-5-5-5-5-5-5-5-5-5-5-|-5-5-5-5-5-5-5-5-5-5--||
|-5-5-5-5-5-5-5-5-5-5-|-5-5-5-5-5-5-5-5-5-5--||
|-3-3-3-3-3-3-3-3-3-3-|-3-3-3-3-3-3-3-3-3-3-o||
|---------------------|----------------------||


 Verse
  G5
  E E +S  S E E E E E   E E +S  S E E E E E
|---------------------|---------------------|
|---------------------|---------------------|
|---------------------|---------------------|
|-5-5-(5)-5-5-5-5-5-5-|-5-5-(5)-5-5-5-5-5-5-|
|-5-5-(5)-5-5-5-5-5-5-|-5-5-(5)-5-5-5-5-5-5-|
|-3-3-(3)-3-3-3-3-3-3-|-3-3-(3)-3-3-3-3-3-3-|


  F5
   E  E  +S   S  E  E  E  E  E    E  E  +S   S  E  E  E  E  E
|------------------------------|------------------------------|
|------------------------------|------------------------------|
|-10-10-(10)-10-10-10-10-10-10-|-10-10-(10)-10-10-10-10-10-10-|
|-10-10-(10)-10-10-10-10-10-10-|-10-10-(10)-10-10-10-10-10-10-|
|--8--8--(8)--8--8--8--8--8--8-|--8--8--(8)--8--8--8--8--8--8-|
|------------------------------|------------------------------|


  Em
   E   E  +S   S   E   E   E   E   E     E   E  +S   S   E   E   E   E   E
|-------------------------------------|-------------------------------------|
|-(8)-(8)-(8)-(8)-(8)-(8)-(8)-(8)-(8)-|-(8)-(8)-(8)-(8)-(8)-(8)-(8)-(8)-(8)-|
|--9---9--(9)--9---9---9---9---9---9--|--9---9--(9)--9---9---9---9---9---9--|
|--9---9--(9)--9---9---9---9---9---9--|--9---9--(9)--9---9---9---9---9---9--|
|--7---7--(7)--7---7---7---7---7---7--|--7---7--(7)--7---7---7---7---7---7--|
|-------------------------------------|-------------------------------------|


                              D.S. al Coda
  D5
  E E +S  S E E E E E   E E +S  S E E E E E
|---------------------|---------------------|
|---------------------|---------------------|
|-7-7-(7)-7-7-7-7-7-7-|-7-7-(7)-7-7-7-7-7-7-|
|-7-7-(7)-7-7-7-7-7-7-|-7-7-(7)-7-7-7-7-7-7-|
|-5-5-(5)-5-5-5-5-5-5-|-5-5-(5)-5-5-5-5-5-5-|
|---------------------|---------------------|


   Chorus (cont.)
    &
    G5                    F5
    E E S S E E E S S E   E E S S E E E S S E
||----------------------|---------------------|
||o---------------------|---------------------|
||----------------------|---------------------|
||--5-5-5-5-5-5-5-5-5-5-|-3-3-3-3-3-3-3-3-3-3-|
||o-5-5-5-5-5-5-5-5-5-5-|-3-3-3-3-3-3-3-3-3-3-|
||--3-3-3-3-3-3-3-3-3-3-|-1-1-1-1-1-1-1-1-1-1-|


  C5
  E E S S E E E S S E   E E S S E E E S S E
|---------------------|----------------------||
|---------------------|---------------------o||
|-5-5-5-5-5-5-5-5-5-5-|-5-5-5-5-5-5-5-5-5-5--||
|-5-5-5-5-5-5-5-5-5-5-|-5-5-5-5-5-5-5-5-5-5--||
|-3-3-3-3-3-3-3-3-3-3-|-3-3-3-3-3-3-3-3-3-3-o||
|---------------------|----------------------||


 Bridge
  Q=84
  G                 F/G               Am                D
  Gtr III
  Q   Q  Q   E  E   Q   Q  Q   E  E   Q   Q  Q   E  E   Q  Q  S S S S +S  S E
|-7---7--7---7----|-5---5--5---5----|-0---0--0---0----|-2--2----2---2-(2)---2--|
|-8---8--8---8----|-6---6--6---6----|-1---1--1---1----|-3--3----3---3-(3)---3--|
|-----------------|-----------------|-----------------|------------------------|
|-----------------|-----------------|-----------------|-0-----0---0-------0----|
|-----------------|-----------------|-0---------(0)-0-|------------------------|
|-3---------(3)-3-|-3---------(3)-3-|-----------------|------------------------|
  H.        +E  E   H.        +E  E   H.        +E  E


                                                   D.S.S. al Dbl. Coda
  G                 F/G               Am                D
  Q   Q  Q   E  E   Q   Q  Q   E  E   Q   Q  Q   E  E   Q   Q  Q   E  E
|-7---7--7---7----|-5---5--5---5----|-0---0--0---0----|-2---2--2---2----|
|-8---8--8---8----|-6---6--6---6----|-1---1--1---1----|-3---3--3---3----|
|-----------------|-----------------|-----------------|-----------------|
|-----------------|-----------------|-----------------|-0---------(0)-0-|
|-----------------|-----------------|-0---------(0)-0-|-----------------|
|-3---------(3)-3-|-3---------(3)-3-|-----------------|-----------------|
  H.        +E  E   H.        +E  E   H.        +E  E   H.        +E  E


   Out-Chorus
    Q=161
    &&
    G5                    F5
    Gtr I
    E E S S E E E S S E   E E S S E E E S S E
||----------------------|---------------------|
||o---------------------|---------------------|
||----------------------|---------------------|
||--5-5-5-5-5-5-5-5-5-5-|-3-3-3-3-3-3-3-3-3-3-|
||o-5-5-5-5-5-5-5-5-5-5-|-3-3-3-3-3-3-3-3-3-3-|
||--3-3-3-3-3-3-3-3-3-3-|-1-1-1-1-1-1-1-1-1-1-|


                       1.,2.,3.
  C5
  E E S S E E E S S E   E E S S E E E S S E  4x
|---------------------|----------------------||
|---------------------|---------------------o||
|-5-5-5-5-5-5-5-5-5-5-|-5-5-5-5-5-5-5-5-5-5--||
|-5-5-5-5-5-5-5-5-5-5-|-5-5-5-5-5-5-5-5-5-5--||
|-3-3-3-3-3-3-3-3-3-3-|-3-3-3-3-3-3-3-3-3-3-o||
|---------------------|----------------------||


  4.
  E E S S E Q  Q    W          W
|-----------------|----------|------*|
|-----------------|----------|------*|
|-5-5-5-5-5-5--5--|----------|------*|
|-5-5-5-5-5-5--5--|----------|------*|
|-3-3-3-3-3-3--3--|----------|------*|
|-----------------|----------|------*|


Duration Legend
---------------
W - whole; H - half; Q - quarter; E - 8th; S - 16th; T - 32nd; X - 64th; a - acciaccatura
+ - note tied to previous; . - note dotted; .. - note double dotted
Uncapitalized letters represent notes that are staccato (1/2 duration)
Irregular groupings are notated above the duration line
Duration letters will always appear directly above the note/fret number it represents the
duration for.  Duration letters with no fret number below them represent rests.  Multi-
bar rests are notated in the form Wxn, where n is the number of bars to rest for.  Low
melody durations appear below the staff

Tablature Legend
----------------
 h   - hammer-on
 p   - pull-off
 b   - bend
 pb  - pre-bend
 r   - bend release (if no number after the r, then release immediately)
 /\  - slide into or out of (from/to "nowhere")
 s   - legato slide
 S   - shift slide
  - natural harmonic
[n]  - artificial harmonic
n(n) - tapped harmonic
 ~   - vibrato
 tr  - trill
 T   - tap
 TP  - trem. picking
 PM  - palm muting
\n/  - tremolo bar dip; n = amount to dip
 \n  - tremolo bar down
 n/  - tremolo bar up
/n\  - tremolo bar inverted dip
 =   - hold bend; also acts as connecting device for hammers/pulls
 <>  - volume swell (louder/softer)
 x   - on rhythm slash represents muted slash
 o   - on rhythm slash represents single note slash

Misc Legend
-----------
 |  - bar
||  - double bar
||o - repeat start
o|| - repeat end
*|  - double bar (ending)
 :  - bar (freetime)
 $  - Segno
 &  - Coda
Tempo markers -  = BPM(8/16=s8/s16), where s8 = swing 8ths, s16 = swing 16ths


Добавлено: 01.07.2012
Другие материалы по этой песне:

Страница создана 25.02.2012
http://primanota.ru/bad-religion/fields-of-mars-chords.htm
Привет, Гость.
Предлагаем пройти революционный курс по гитаре.
Подарок от PrimaNota.Ru, забирай!