PrimaNota.ru - самый крупный в мире бесплатный архив песенных текстов, аккордов, табулатур и нот


Babyshambles - Loyalty Dong - бас-таба, видео

Регистрация Запомнить меня
Войти через:  Facebook Google Twitter Vk Yandex Mail.ru

Babyshambles - Loyalty Dong - бас-таба, видео

Печатать
Просмотров: 143
Уроки эстрадного вокала в Санкт-Петербурге
-------------------------------------------------------------------------------
			     Loyalty Song - Babyshambles
-------------------------------------------------------------------------------

Tabbed By : Stuart 

Tuning: Standard

Intro:

G|-------------------------------------------------------------------------|
D|-----6--6--6—-6-//--11--11--11--11--11-\\--8--8--8--8--8--8--8--8--8-----|
A|----7--7--7--7-//-----12--12--12--12----\\---9--9--9--9--9--9--9--9------|x2
E|-------------------------------------------------------------------------|

"What did i dream" bit.

G|---------------------------------------------------------------------------|
D|-------------------------3-------------------------------------------------|
A|-----5555-333-----5555-35-5-3----------------------------------------------|
E|--333----------333-----------5-33------------------------------------------|

Repeat the above until one last time, when you do:

G|---------------------------------------------------------------------------|
D|---------------------------8-----------------------------------------------|
A|-----------------------8-10--10-8------------------------------------------|
E|-333-/-10-10-10-10-8-10-----------10-\-3-----------------------------------|

Song just repeats that mainly.

There are other bits but I don't know them yet.

Remember!!! Don't improvise too much.


| /  slide up
| \  slide down
| h  hammer-on
| p  pull-off
| ~  vibrato
| +  harmonic
| x  Mute note
===============================================================================

Добавлено: 30.03.2012
Другие материалы по этой песне:
  • Аккорды и текст

Страница создана 30.03.2012
http://primanota.ru/babyshambles/loyalty-dong-chords.htm
Привет, Гость.
Предлагаем пройти революционный курс по гитаре.
Подарок от PrimaNota.Ru, забирай!