PrimaNota.ru - самый крупный в мире бесплатный архив песенных текстов, аккордов, табулатур и нот


Ayumi Hamasaki - Inspire - текст песни, таба, видео

Регистрация Запомнить меня
Войти через:  Facebook Google Twitter Vk Yandex Mail.ru

Ayumi Hamasaki - Inspire - текст песни, таба, видео

Печатать
Просмотров: 160
                              Song By Ayumi Hamasaki

                                  "Inspire" Solo
                           (Arena Tour 2005 Live Version)

Tabbed by Eg4man AKA Dean Horein.

This solo is in Standard tuning. along with the song. I own some DVD Ayu concerts and
to play along with them by ear. I love this solo. Anyway if you have trouble Understanding
tab then just try to listen to the live song version itself. I make tabs my own way like 
sure a lot of other people do.

Oh yeah! The less spaces between the notes, the faster they get. I have tried to
things to the best of my abilty. Please practice and enjoy!

e--------------------------------------------------------------------------|
b--------------------------------------------8--11--10--9--8---------------| sustain with
g--------------------------------------------------------------------------|
d---10 sustain with vibrato---slide up---10--------------------------------|
a--------------------------------------------------------------------------|
E--------------------------------------------------------------------------|

---------------------------------------------------------------------------|
vibrato--slide up---8--9--8--9--8------------------------------------------|
-----------------------------------10--8--7--8--7--------------------------|
---------------------------------------------------10--8--10--8------------|
-----------------------------------------------------------------10--8--10-|
---------------------------------------------------------------------------|

---------------------------------------------------------------8 vibrato--|
-------------------8--9--8 sustain with vibrato--slipe up---8-------------|
---------7--8--10---------------------------------------------------------|
--8--10-------------------------------------------------------------------|
--------------------------------------------------------------------------|
--------------------------------------------------------------------------|

slide up------------------------------------------------------------------|
--------------------------------------------------------------------------|
---------------------------------------------12 sustain power chord---10--|
----------10-10 palm mute both power chords--12 sustain power chord-------|
----------10-10 palm mute both power chords-------------------------------|
--------------------------------------------------------------------------|

-------------------------8--slide down--16--15--16--15--13-15-15-13-13-15-|
--------------------------------------------------------------------------|
8-------------------------------------------------------------------------|
---10 sustain--slide up---------------------------------------------------|
--------------------------------------------------------------------------|
--------------------------------------------------------------------------|

15-13-13-------------------------------------------------------------------|
---------16-16-15-15-16-16-15-15-13-13-15-15-13-13-------------------------|
---------------------------------------------------15-15-13-13-15-15-13-13-|
---------------------------------------------------------------------------|
---------------------------------------------------------------------------|
---------------------------------------------------------------------------|

-------------------------------------------------------13-13-13-15-15-15-|
-------------------------------------13-13-13-15-15-15-------------------|
-12-12-13-13-12-12-13-13-13-15-15-15-------------------------------------|
-------------------------------------------------------------------------|
-------------------------------------------------------------------------|
-------------------------------------------------------------------------|

16-16-16-18-18-18-20 vibrato--slide up----|
------------------------------------------|
------------------------------------------|
------------------------------------------| End of Solo!!!
------------------------------------------|
------------------------------------------|
Добавлено: 05.06.2012
Другие материалы по этой песне:
  • Аккорды и текст

Страница создана 05.06.2012
http://primanota.ru/ayumi-hamasaki/inspire-chords.htm
Привет, Гость.
Предлагаем пройти революционный курс по гитаре.
Подарок от PrimaNota.Ru, забирай!