PrimaNota.ru - самый крупный в мире бесплатный архив песенных текстов, аккордов, табулатур и нот


Ayumi Hamasaki - Dearest - текст песни, таба, видео

Регистрация Запомнить меня
Войти через:  Facebook Google Twitter Vk Yandex Mail.ru

Ayumi Hamasaki - Dearest - текст песни, таба, видео

Печатать
Просмотров: 259
Уроки эстрадного вокала в Санкт-Петербурге
Intro: Piano 
e|---------------------------------------------------------------------|
B|-10-9-7-----------------10-9-10-12---1010-9--------------------------|
G|--------99-6/10-9-7-^6~------------11-------99-6/^11~----------------|
D|---------------------------------------------------------------------|
A|---------------------------------------------------------------------|
E|---------------------------------------------------------------------|

e|---------------------------------------------------------------------|
B|-10-9-7-----------------10-9-10-12--1010-9---------------------------|
G|--------99-6/10 9-7-^6~-----------11-------99-6/^11~-----------------|
D|---------------------------------------------------------------------|
A|---------------------------------------------------------------------|
E|---------------------------------------------------------------------|

e|---------------------------------------------------------------------|
B|-^12108---^12108--108----^10~-^12108--^12108-8-----------------------|
G|-------9--------9----9-9------------9--------------------------------|
D|---------------------------------------------------------------------|
A|---------------------------------------------------------------------|
E|---------------------------------------------------------------------|

e|---------------------------------------------------------------------|
B|-10-101210-13-14^14-14-^10~-10-101210-10-----^10~--------------------|
G|----------------------------------------9-9-9------------------------|
D|---------------------------------------------------------------------|
A|---------------------------------------------------------------------|
E|---------------------------------------------------------------------|

e|---------------------------------------------------------------------|
B|-10-101210-13-14^14-14-^10~-10-101210-10-----^10~~-------------------|
G|----------------------------------------9-9-9------------------------|
D|---------------------------------------------------------------------|
A|---------------------------------------------------------------------|
E|---------------------------------------------------------------------|
(Piano Plays)
e|---------------------------------------------------------------------|
B|-10-9-7-----------------10-9-10-12---1010-9--------------------------|
G|--------99-6/10-9-7-^6~------------11-------99-6/^11~----------------|
D|---------------------------------------------------------------------|
A|---------------------------------------------------------------------|
E|---------------------------------------------------------------------|





e|---------------------------------------------------------------------|
B|-^12108---^12108--108----^10~-^12108--^12108-8-----------------------|
G|-------9--------9----9-9------------9--------------------------------|
D|---------------------------------------------------------------------|
A|---------------------------------------------------------------------|
E|---------------------------------------------------------------------|

e|---------------------------------------------------------------------|
B|-10-101210-13-14^14-14-^10~-10-101210-10-----------------------------|
G|----------------------------------------9-9-9-^9~--------------------|
D|---------------------------------------------------------------------|
A|---------------------------------------------------------------------|
E|---------------------------------------------------------------------|

e|---------------------------------------------------------------------|
B|-10-101210-13-14^14-14-^10~-10-101210-10------^10~////////-----------|
G|----------------------------------------9-9-9------------------------|
D|---------------------------------------------------------------------|
A|---------------------------------------------------------------------|
E|---------------------------------------------------------------------|
(Piano Plays)
e|---------------------------------------------------------------------|
B|-10-101210-13-14^14-14-^10~-10-101210-10-----------------------------|
G|----------------------------------------9-9-9-^9---------------------|
D|---------------------------------------------------------------------|
A|---------------------------------------------------------------------|
E|---------------------------------------------------------------------|

e|---------------------------------------------------------------------|
B|-10-101210-13-14^14-14-^10~-10-101210-10--9-9-^9---------------------|
G|----------------------------------------9----------------------------|
D|---------------------------------------------------------------------|
A|---------------------------------------------------------------------|
E|---------------------------------------------------------------------|

e|---------------------------------------------------------------------|
B|-11-111311-14-15^15-15-^11~-11-111311-13--------^10~-----------------|
G|----------------------------------------10-10-10---------------------|
D|---------------------------------------------------------------------|
A|---------------------------------------------------------------------|
E|---------------------------------------------------------------------|

e|---------------------------------------------------------------------|
B|-11-111311-14-15^15-15-^11~-11-111311-13---10-10^10~-----------------|
G|----------------------------------------10---------------------------|
D|---------------------------------------------------------------------|
A|---------------------------------------------------------------------|
E|---------------------------------------------------------------------|

e|---------------------------------------------------------------------|
B|---11~~~/151311-151311 1516151311-10-11h10-8-6-4-3-2--1--------------|
G|--------------------------------------------------------3-2----------|
D|---------------------------------------------------------------------|
A|---------------------------------------------------------------------|
E|---------------------------------------------------------------------|
Not sure about the last 3 notes but this is my first tabbed song so give 
me some slack.
Добавлено: 02.07.2012
Другие материалы по этой песне:

Страница создана 08.05.2012
http://primanota.ru/ayumi-hamasaki/dearest-chords.htm
Привет, Гость.
Предлагаем пройти революционный курс по гитаре.
Подарок от PrimaNota.Ru, забирай!