PrimaNota.ru - самый крупный в мире бесплатный архив песенных текстов, аккордов, табулатур и нот


Axel Rudi Pell - Valley Of Sin - таба, видео

Регистрация Запомнить меня
Войти через:  Facebook Google Twitter Vk Yandex Mail.ru

Axel Rudi Pell - Valley Of Sin - таба, видео

Печатать
Просмотров: 165
	-Valley Of Sin-
	-Axel Rudi Pell-		Guitar Tuned D#
	From the album: "Mystica"
					tabbed by rockman85 (rockman85@jippii.fi)

There's no solos tabbed 'cause i'm not sologuitarist ;D

Intro:

e-----------------------------------------|
 -----------------------------------------|
 -----------------------------------------|
 ----5()-5-7-4()-4-7()-9-4-5()------------|
 --7--------------------------------------|
E-----------------------------------------|


Main riff:

e------------------------------------------|
 ------------------------------------------|
 ------------------------------------------|
 ---5-4------7-5---------------------------|
 ---7-5------9-7---------------------------|
E-------0000-----0000----------------------|
	p.m.	p.m.

Bridge:

e---------------------------------------------------------------------|
 ---------------------------------------------------------------------|
 --2-()------7-()-At 1st time:5-()------------------------------------|
 --2-()-5-()-7-()-------------5-()------At 2nd time: ---9-()----------|
 --0-()-5-()-5-()-------------3-()----------------------9-()----------|
E-------3-()--------------------------------------------7-()----------|

"On and on............"


Chorus:

e--------------------------------------------------------------------|
 --------------------------------------------------------------------|
 --------------------------------------------------------------------|
 ---5---------5-4-7-5------5-4--5-------5-4-2-4-()------1-()---------|
 ---7---------7-5-9-7------7-5--7-------7-5-3-5-()------2-()---------|
E-------0000----------0000--------0000-------------0000--------------|
	p.m.		p.m.	p.m.--I		p.m.---I


Song goes like that:

Intro x6
Main riff x8
Bridge x1
Chorus x1
Solo part 1
Intro x2
Main riff x5
Bridge x1
Chorus x2
Solo part 2 (at 4:34 Axel plays main riff x4 under solo)
Bridge x1
Chorus (till fades out) Under chorus there's solo part 3...


() = let ring

Listen the song for timing!

Добавлено: 05.04.2012
Другие материалы по этой песне:

Страница создана 05.04.2012
http://primanota.ru/axel-rudi-pell/valley-of-sin-chords.htm
Привет, Гость.
Предлагаем пройти революционный курс по гитаре.
Подарок от PrimaNota.Ru, забирай!