PrimaNota.ru - самый крупный в мире бесплатный архив песенных текстов, аккордов, табулатур и нот


Awolnation - Burn It Down - текст песни, таба, видео

Регистрация Запомнить меня
Войти через:  Facebook Google Twitter Vk Yandex Mail.ru

Awolnation - Burn It Down - текст песни, таба, видео

Печатать
Просмотров: 545
Song: Burn It Down
Artist: Awolnation
Album: Megalithic Symphony
Tuning: Drop D

Intro/Verse
|-----------------------------------------------------------------| 
|-----------------------------------------------------------------|
|-----------------------------------------------------------------|
|-3-3-3-3-3-3-3-3-3-3-3-3-3-3-3-3-3-3-3-3-3-3-3-3-3-3-3-3-3-3-3-3-| 
|-----------------------------------------------------------------|
|-----------------------------------------------------------------|
PM| - - - - - - - - - - - - - - - - - - - - - - - - - - - - - - -

|-----------------------------------------------------------------| 
|-----------------------------------------------------------------|
|-----------------------------------------------------------------|
|-3-3-3-3-3-3-3-3-3-3-3-3-3-3-3-3-3-3-3-3-3-3-3-3-3-3-3-3-3-3-3-3-| 
|-5-5-5-5-5-5-5-5-5-5-5-5-5-5-5-5-5-5-5-5-5-5-5-5-5-5-5-5-5-5-5-5-|
|-----------------------------------------------------------------|
PM| - - - - - - - - - - - - - - - - - - - - - - - - - - - - - - -



Chorus
|-----------------------------------------------------------------| 
|-----------------------------------------------------------------|
|-----------------------------------------------------------------|
|-----------------------------------------------------------------| 
|-----------------------------------------------------------------|
|-3---6-3-6-3---3-3---3-6-3-6-3---3---6-3-6-3---3-3---3-6-3-6-3---|

|-----------------------------------------------------------------| 
|-----------------------------------------------------------------|
|-----------------------------------------------------------------|
|-----------------------------------------------------------------| 
|-----------------------------------------------------------------|
|-0---3-0-3-0---0-0---0-3-0-3-0---0---3-0-3-0---0-0---0-3-0-3-0---|


Post-Chorus
|-----------------------------------------------------------------| 
|-----------------------------------------------------------------|
|-----------------------------------------------------------------|
|-----------3---------------3---------------3---------------3-----| 
|-------3-6-------------3-6-------------3-6-------------3-6-------|
|-3-----------------3-3-----------3-----------------3-3-----------|



Bridge
|-----------------------------------------------------------------------| 
|-----------------------------------------------------------------------|
|-----------------------------------------------------------------------|
|-----------------------------------------------------------------------| 
|-----------------------------------------------------------------------|
|-3--3---3--3---3--3---3--3---3--3---3--3---3--3---3--3---3-3-1---3-3-1-|

"Looking through a window made of time..."
(All parts here are layered on top of each other)
|-----------------------------------------------------------------| 
|-----------------------------------------------------------------|
|-101010101010101010101010101010108-8-8-8-8-8-8-8-8-8-8-8-8-8-8-8-|
|-x-x-x-x-x-x-x-x-x-x-x-x-x-x-x-x-x-x-x-x-x-x-x-x-x-x-x-x-x-x-x-x-| 
|-8-8-8-8-8-8-8-8-8-8-8-8-8-8-8-8-6-6-6-6-6-6-6-6-6-6-6-6-6-6-6-6-|
|-----------------------------------------------------------------|

|-----------------------------------------------------------------| 
|-----------------------------------------------------------------|
|-7-7-7-7-7-7-7-7-7-7-7-7-7-7-7-7-6-6-6-6-6-6-6-6-6-6-6-6-6-6-6-6-|
|-x-x-x-x-x-x-x-x-x-x-x-x-x-x-x-x-x-x-x-x-x-x-x-x-x-x-x-x-x-x-x-x-| 
|-5-5-5-5-5-5-5-5-5-5-5-5-5-5-5-5-4-4-4-4-4-4-4-4-4-4-4-4-4-4-4-4-|
|-----------------------------------------------------------------|

2nd time
|-----------------------------------------------------------------| 
|---------------------------------11111111111111111111111111111111|
|-10101010101010101010101010101010x-x-x-x-x-x-x-x-x-x-x-x-x-x-x-x-|
|-x-x-x-x-x-x-x-x-x-x-x-x-x-x-x-x-8-8-8-8-8-8-8-8-8-8-8-8-8-8-8-8-| 
|-8-8-8-8-8-8-8-8-8-8-8-8-8-8-8-8---------------------------------|
|-----------------------------------------------------------------|

(they are 11s)
|---------------------------------11111111111111111111111111111111| 
|-11111111111111111111111111111111--------------------------------|
|-----------------------------------------------------------------|
|-----------------------------------------------------------------| 
|-----------------------------------------------------------------|
|-----------------------------------------------------------------|

3rd time
|---------------------------------11111111111111111111111113131313| 
|-11111111111111111111111111111111--------------------------------|
|-----------------------------------------------------------------|
|-----------------------------------------------------------------| 
|-----------------------------------------------------------------|
|-----------------------------------------------------------------|

|-101010101010101010101010101010109-9-9-9-9-9-9-9-9-9-9-9-9-9-9-9-| 
|-----------------------------------------------------------------|
|-----------------------------------------------------------------|
|-----------------------------------------------------------------| 
|-----------------------------------------------------------------|
|-----------------------------------------------------------------|


Outro Solo (repeat x number amount of times, with some variations in timing)
|-----------------------------| 
|-----------------------------|
|-15b-15b-13p15h13p15p13------|
|------------------------15~--| 
|-----------------------------|
|-----------------------------|

And yer done!
Добавлено: 08.05.2012
Другие материалы по этой песне:

Страница создана 08.05.2012
http://primanota.ru/awolnation/burn-it-down-chords.htm
Привет, Гость.
Предлагаем пройти революционный курс по гитаре.
Подарок от PrimaNota.Ru, забирай!