PrimaNota.ru - самый крупный в мире бесплатный архив песенных текстов, аккордов, табулатур и нот


Avatar - Avatars Love - таба, видео

Регистрация Запомнить меня
Войти через:  Facebook Google Twitter Vk Yandex Mail.ru

Avatar - Avatars Love - таба, видео

Печатать
Просмотров: 360
Not my work. Tab is from a tutorial from youtube.

e----------------------------------------------------------------|
B------------------7------------8-7------------------------------|
G----6-----7-------7------------7--------------------------------|
D---4-----5-----7---------9-----9--------------------------------|
A--5-----7-----9-9------10--10--10-------------------------------|
D----------------------------------------------------------------|

e---------------------------------------------------------------|
B-3----2----------------3---2------------3-2--------3-2---------|
G----------2-------------------2-------------2----------2-------|
D-------------4-------------------4------------4----------4-----|
A----------------------------------------0----------0-----------|
D-0---------------------0---------------------------------------|

e---------------------------------------------------------------|
B---------------------------------------------------------------|
G--0----0-----0----0----------0----0------0----0----------------|
D-----4---0------4---0-----------4---0-------4----4-0-----------|
A-----------------------2------------------------------2--------|
D--5----------5---------------5-----------5---------------------|

e---------------------------------------------------------------|
B-3----2----------------3---2------------3-2--------3-2---------|
G----------2-------------------2-------------2----------2-------|
D-------------4-------------------4------------4----------4-----|
A---------------------------------------------------4-----------|
D-0---------------------0----------------5----------------------|

e-----------------------------------0---2--0---2~~5---5---5~~2--|
B-----------------------2--3--2--3------3-----------------------|
G----------2--4--2--4-------------------------------------------|
D-5--4--5-------------------------------------------------------|
A---------------------------------------------------------------|
D---------------------------------------------------------------|

e-0--2-------------------------2---2--5----2------3---3---3-----|
B-------2-------0---0---2---3--3---3--3----2------3---3---3-----|
G---------------0---0-------4--4---2--2----2------4---4---4-----|
D---------------0---0-------4--4---0--0----4------5---5---5-----|
A---------------------------2--2-----------4------5---5---5-----|
D---------------5---5----------------------4------5---5---5-----|

e---5---5---5-----------7--5------------------------------------|
B---5---5---5-------7------------7------------------------------|
G---6---6---6---------------------------------------------------|
D---7---7---7--------------------7------------------------------|
A---7---7---7---------------------------------------------------|
D---7---7---7--------------------0------------------------------|
Добавлено: 24.07.2013
Другие материалы по этой песне:
  • Аккорды и текст

Страница создана 24.07.2013
http://primanota.ru/avatar/avatars-love-chords.htm
Привет, Гость.
Предлагаем пройти революционный курс по гитаре.
Подарок от PrimaNota.Ru, забирай!