PrimaNota.ru - самый крупный в мире бесплатный архив песенных текстов, аккордов, табулатур и нот


Aurora - Vintage - таба, бас-таба, видео

Регистрация Запомнить меня
Войти через:  Facebook Google Twitter Vk Yandex Mail.ru

Aurora - Vintage - таба, бас-таба, видео

Печатать
Просмотров: 111
Уроки эстрадного вокала в Санкт-Петербурге


VINTAGE

~ let ring
x palm mute
/ slide up
 slide down


INTRO

G|--------------------|
D|--------------------|
A|--------------------|
E|--0-0-4-4-0-0-5-5---|

VERSE

G|--------------------|--------------------|
D|--------------------|--------------------|
A|--------------4-4---|--------------5-4---|
E|--0-0-4-4-5-5-------|--0-0-4-4-5-5-------|

G|--------------------|--------------------|
D|--------------------|--------------------|
A|--------------5-5---|--------------------|
E|--0-0-4-4-5-5-------|--0-0-4-4-5-5-0-0---|

CHORUS

G|--------------------|--------------------|
D|--------------------|--------------------|
A|--------------------|--------------5-4---|
E|--0-0-0-0-4-4-5-5---|--0-0-0-0-5-5-------|

BRIDGE

G|------------------------|
D|------------------------|
A|--5555-3333-7777--------|
E|-----------------5555---| x3

G|------------------------|
D|------------------------|
A|------------------------|
E|--5555-3333-7777-0~-----| x1

Добавлено: 28.09.2013
Другие материалы по этой песне:
  • Аккорды и текст

Страница создана 28.09.2013
http://primanota.ru/aurora/vintage-chords.htm
Привет, Гость.
Предлагаем пройти революционный курс по гитаре.
Подарок от PrimaNota.Ru, забирай!