PrimaNota.ru - самый крупный в мире бесплатный архив песенных текстов, аккордов, табулатур и нот


Audioslave - Exploder - аккорды и текст, таба, бас-таба, видео

Регистрация Запомнить меня
Войти через:  Facebook Google Twitter Vk Yandex Mail.ru

Audioslave - Exploder - аккорды и текст, таба, бас-таба, видео

Печатать
Просмотров: 253
Exploder
Audioslave
		   Audioslave: 9. Exploder
tabbed by thedarkwinbass@yahoo.com
music by tom morello

Standard Tunning

intro: clean
e|--22222222222222222222222222222222--|
B|------------------------------------|
G|------------------------------------|
D|------------------------------------|
A|------------------------------------|
E|------------------------------------|

verse: clean 2x
e|--2222222222222222--0000000000000000--|
B|--------------------------------------|
G|--------------------------------------|
D|--------------------------------------|
A|--------------------------------------|
E|--------------------------------------|

chorus: distorted 2x
e|---------------------------------------------------------|
B|---------------------------------------------------------|
G|---------------------------------------------------------|
D|--4----------4---------x-x-x-x--4----------4-------------|
A|-----------------------x-x-x-x---------------------------|
E|----2-0-2-0----2-0-2-0-x-x-x-x----2-0-2-0----2-0-2-0-2b--|
						*1/2 bend release
verse 3x
chorus 2x

solo: tom uses whammy an octave up but this will do w/ or w/o a whammy
e|----------------------------------------------------
B|-----19----19----19----19----19----19----19----19---
G|-----------------------------------------------------
D|--16----16----16----16----16----16----16----16--------
A|-----------------------------------------------------
E|----------------------------------------------------

----------------------------------------------------
-----17----17----17----17----17----17----17----17----
-----------------------------------------------------
--14----14----14----14----14----14----14----14-------
----------------------------------------------------
----------------------------------------------------

-----------17----------19----------21----------22---
-----19----------19----------19----------19---------
------------------------------------------------------
--16----16----16----16----16----16----16----16-------
-----------------------------------------------------
----------------------------------------------------

------------17----17----16--------------------|
------17--------------------17-15-14----------|
--------------------------------------14------|
---14----14----14----14-------------------16--|
----------------------------------------------|
----------------------------------------------|

verse 2x
chorus 2x
vocal solo (amazing Cornell)

outro: i'm not exactly sure, but i think he stikes some notes and presses down on the whammy also, maybe try this
e|--12b--12b--12b--12b--12b--12b--|
B|--14b--14b--14b--14b--14b--14b--|
G|--14b--14b--14b--14b--14b--14b--|
D|--------------------------------|
A|--------------------------------|
E|--------------------------------|


That's it....any comments, suggestions, corrections, or further info
just email me...enjoy it...rock on the slave.....     
Добавлено: 12.08.2013
Другие материалы по этой песне:

Страница создана 27.03.2012
http://primanota.ru/audioslave/exploder-chords.htm
Привет, Гость.
Предлагаем пройти революционный курс по гитаре.
Подарок от PrimaNota.Ru, забирай!