PrimaNota.ru - самый крупный в мире бесплатный архив песенных текстов, аккордов, табулатур и нот


Audioslave - Heavens Dead - аккорды и текст, таба, бас-таба, видео

Регистрация Запомнить меня
Войти через:  Facebook Google Twitter Vk Yandex Mail.ru

Audioslave - Heavens Dead - аккорды и текст, таба, бас-таба, видео

Печатать
Просмотров: 318
Heavens Dead
Audioslave


Song: Heaven's Dead
Band: Audioslave



Created by Michiel de Boorder on the 28th of august, 2005

Suggestions and comments to michieldeboorder@hotmail.com

Notes: After I did the acoustic version of audioslave's
Like a Stone,I thought I'd try to create a few nonexistent'acoustic versions'.
Here's the first one.
Coming soon: 'Yesterday and tomorrow'
By the way: some of these chord names look as ridiculous as they do, because I
had no idea how to call them. So,I put them through a chord generator and,
apparently, these are their names.The Aadd9sus4 and Aadd9sus4* are more or
less the same chords, but I think they sound better when they're played differently.

Tuning: standard E (EADGBE)

Intro
D     Dsus4    Dsus2     D

Asus4no5   Aadd9sus4   Aadd9sus4*  Asus4w3  Dsus2



Verse 1
D          Dsus4      Dsus2      D
Anchor the night,      open  the  sky.

Asus4no5    Aadd9sus4    Aadd9sus4*  Asus4w3  Dsus2
Hide in the hours before sun        -         rise

D           Dsus4    Dsus2        D
Pray for me not   -  I won't lose sight

   Asus4no5   Aadd9sus4     Aadd9sus4*  Asus4w3  Dsus2
of where I belong and where you        -         lie.



Chorus
     G5
Well heaven's dead, when you get sad.

  A   Asus2  A   Asus2 A
I see wishes fly  -  ing.

Cadd9
Out of time, for the best time you've had.



Intro
D     Dsus4    Dsus2     D

Asus4no5   Aadd9sus4   Aadd9sus4*  Asus4w3  Dsus2



Verse 2
D             Dsus4      Dsus2       D
Shipwreck the sun,   -   I'm on your side:

   Asus4no5 Aadd9sus4  Aadd9sus4* Asus4w3   Dsus2
An army of one, onward we    -    will  -   ride.

D            Dsus4  Dsus2         D
Whisper your songs, birds, to the air;

Asus4no5   Aadd9sus4  Aadd9sus4* Asus4w3  Dsus2
we'll bury all of our bur   -    dens  -  there.


Chorus (played twice this time)
     G5
Well heaven's dead, when you get sad

  A   Asus2  A   Asus2 A
I see wishes fly  -  ing.

Cadd9
Out of time, for the best time you've had.

Guitar solo

  '       '       '       '
e|--------------------------------|
B|----15--------------------------|
G|------------14~---------12p11---|
D|12------12-------------------14-|
A|--------------------------------|
E|--------------------------------|

  '       '       '       '
e|--------------------------------|
B|--------------------------------|
G|------------------14------------|
D|14hb14--14br12--12--12~---------|
A|--------------14----------------|
E|--------------------------------|

  '       '       '       '
e|--------------------------------|
B|--------------------------------|
G|--14121112111--11-12p11---------|
D|-------------14-----------14p12-|
A|--------------------------------|
E|--------------------------------|
  '       '       '       '
e|----14--------------------------|
B|--15----15----------------------|
G|14------------------------------|
D|--------------------------------|
A|--------------------------------|
E|--------------------------------|


Bridge
(repeat this four times)

For the best time you've had

  '       '       '       '
e|2-------0-------0---0---0---0---|
B|3-------2-------3---2---2---3---|
G|2-------2-------4---2---2---0---|
D|0-------0-------0---0---4---0---|
A|0-------0-------0---0---0---0---|
E|--------------------------------|
  '       '       '       '
e|----2---2-----------------------|
B|----3---3---------------------3-|
G|----2---2-----------------2-4---|
D|----0---4-----------4-2-4-------|
A|----0---0-----------------------|
E|--------------------------------|



Chorus (twice)
     G5
Well heaven's dead, when you get sad

  A   Asus2  A   Asus2 A
I see wishes fly  -  ing

Cadd9
Out of time, for the best time you've had



Verse 3
D            Dsus4        Dsus2        D
I'll take it all,         arrows or    guns,

Asus4no5   Aadd9sus4   Aadd9sus4*   Asus4w3  Dsus2
Hundreds more to save  you          from     one



Bridge 2
(repeat this four times)

To save you from one
  '       '       '       '
e|2-------0-------0---0---0---0---|
B|3-------2-------3---2---2---3---|
G|2-------2-------4---2---2---0---|
D|0-------0-------0---0---4---0---|
A|0-------0-------0---0---0---0---|
E|--------------------------------|
  '       '       '       '
e|----2---2-----------------------|
B|----3---3---------------------3-|
G|----2---2-----------------2-4---|
D|----0---4-----------4-2-4-------|
A|----0---0-----------------------|
E|--------------------------------|



Chords:

   D Dsus4 Dsus2 Asus4no5 Aadd9sus4
e|-2---3-----0---------------------|
B|-3---3-----3------3--------5-----|
G|-2---2-----2------2--------4-----|
D|-0---0-----0------0--------0-----|
A|-0---0-----0------0--------0-----|
D|---------------------------------|

  Aadd9sus4* Asus4w3 G5 A Asus2 Cadd9
e|----0---------0----3--0---0-----3--|
B|----0---------2----3--2---0-----3--|
G|----2---------2----0--2---2-----0--|
D|----0---------0----0--2---2-----2--|
A|----0---------0----2--0---0-----3--|
E|-------------------3---------------|


Добавлено: 16.01.2014
Другие материалы по этой песне:

Страница создана 23.02.2012
http://primanota.ru/audioslave/heavens-dead-chords.htm
Привет, Гость.
Предлагаем пройти революционный курс по гитаре.
Подарок от PrimaNota.Ru, забирай!