PrimaNota.ru - самый крупный в мире бесплатный архив песенных текстов, аккордов, табулатур и нот


Attila - Belligerent - таба, видео

Регистрация Запомнить меня
Войти через:  Facebook Google Twitter Vk Yandex Mail.ru

Attila - Belligerent - таба, видео

Печатать
Просмотров: 304
Уроки эстрадного вокала в Санкт-Петербурге
Attila- Belligerent
Palm mute = #
Hammer on = h
Pull off = p
Slide = /

I am working on the whole song not quite there yet but i worked so hard trying to get 
the intro down i didnt want to wait to put it up lol. So here you go the intro maybe its 
alittle more than the intro but what the hell.


C#|-------------------------------------------------------------------|
G#|-------------------------------------------------------------------|
E |-------------------------------------------------------------------|
B |-0-------------------0------------------9-----------------0--------|
F#|-0----------------6--0----------6p5-----9--------------6--0--------|
B |-0----0h9p0h9/10-----0---0-9-0-------00-9--0h9p0h9/10-----0--------|
                            #   #       ##


C#|-------------------------------------------------------------------|
G#|-------------------------------------------------------------------|
E |------------------------------------9p8----------------------------|
B |-------------------------------------------------------------------|
F#|--------6p5--------------------------------------------------5-----|
B |-0-9-0------00—-0-0-0--0--000-009-0-----0-0-0--0--000-008-0-----7--|
    #   #      ##  # # #  #  ### ##  #     # # #  #  ### ##  #


C#|-------------------------------------------------------------------|
G#|-------------------------------------------------------------------|
E |---------------------9p8-------------------------------------------|
B |-------------------------------------------------------------------|
F#|----------------------------------------------5--------------------|
B |-0-0-0--0--000-009-0-----0-0-0--0--000-008-0----7------------------|
    # # #  #  ### ##  #     # # #  #  ### ##  #


C#|-------------------------------------------------------------------|
G#|-------------------------------------------------------------------|
E |----------------------9p8------------------------------------------|
B |-------------------------------------------------------------------|
F#|-----------------------------------------------5-------------------|
B |-0-0-0--0--0000-009-0-----0-0-0--0--0000-008-0---7-----------------|
    # # #  #  #### ##  #     # # #  #  #### ##  #


C#|-------------------------------------------------------------------|
G#|-------------------------------------------------------------------|
E |----------------------9p8------------------------------------------|
B |-----------------------------------------------------8--10---------|
F#|-----------------------------------------------5-----8--10---------|
B |-0-0-0--0--0000-009-0-----0-0-0--0--0000-008-0---7---8--10---------|
    # # #  #  #### ##  #     # # #  #  #### ##  #




C#|-------------------------------------------------------------------|
G#|-------------------------------------------------------------------|
E |-------------------------------------------------------------------|
B |-------------5----------------3------------------------------------|
F#|--------5p4h5-4h5-------5p4--5-4-5------------7--------------------|
B |-00000------------00000----0-------00000-7p6h7-6h7--000-8-8-8-8-8-8|
    #####            #####    #       #####            ###


C#|-------------------------------------------------------------------|
G#|-------------------------------------------------------------------|
E |-------------------------------------------------------------------|
B |-------------5----------------3------------------------------------|
F#|--------5p4h5-4h5-------5p4--5-4-5------------7--------------------|
B |-00000------------00000----0-------00000-7p6h7-6h7--000-8-8-8-8-8-8|
    #####            #####    #       #####            ###


C#|-------------------------------------------------------------------|
G#|-------------------------------------------------------------------|
E |-------------------------------------------------------------------|
B |-------------5----------------3------------------------------------|
F#|--------5p4h5-4h5-------5p4--5-4-5------------7--------------------|
B |-00000------------00000----0-------00000-7p6h7-6h7--000-8-8-8-8-8-8|
    #####            #####    #       #####            ###


C#|-------------------------------------------------------------------|
G#|-------------------------------------------------------------------|
E |-------------------------------------------------------------------|
B |-------------5----------------3------------------------------------|
F#|--------5p4h5-4h5-------5p4--5-4-5------------7--------------------|
B |-00000------------00000----0-------00000-7p6h7-6h7--000-8-8-8-8-8-8|
    #####            #####    #       #####            ###


C#|-------------------------------------------------------------------|
G#|-------------------------------------------------------------------|
E |-------------------------------------------------------------------|
B |--------------0----------------------------------------------------|
F#|-8-8-8-7-7-7--0----------------------------------------------------|
B |--------------0-000------------------------------------------------|
                   ###
Добавлено: 09.05.2012
Другие материалы по этой песне:
  • Аккорды и текст

Страница создана 09.05.2012
http://primanota.ru/attila/belligerent-chords.htm
Привет, Гость.
Предлагаем пройти революционный курс по гитаре.
Подарок от PrimaNota.Ru, забирай!