PrimaNota.ru - самый крупный в мире бесплатный архив песенных текстов, аккордов, табулатур и нот


Пьяццолла Астор - Primavera Portena - таба, видео

Регистрация Запомнить меня
Войти через:  Facebook Google Twitter Vk Yandex Mail.ru

Пьяццолла Астор - Primavera Portena - таба, видео

Печатать
Просмотров: 368
Primavera Portena-If there were a difficulty box higher than advanced I would have 
selected it, this piece is nuts.

E|----------|-0------------0--7--|-----0-------7----|
B|----------|----0--8--------11--|-------0-8--------|
G|-------4--|-8----11------------|---0-------9------|
D|----------|--------------------|------------------|
A|----------|--------------------|------------------|
E|----------|-0-----0---------0--|-0-----0-------0--|

|--7-----------------|-----7--------------|
|-11-----7------0-3--|---7-----7p0--------|
|-----7-10--------2--|-------7-----7------|
|--0-----0--------0--|-0-----0-------0----|
|--------------------|--------------------|
|--------------------|--------------------|

|------0-------3--|---------0---3----|
|-0----4-------7--|-----1-----1------|
|-5--0-------5----|-------0----------|
|-----------------|---2--------------|
|-3----3-------3--|-3-----3-------3--|
|-----------------|------------------|

|--7-----------------|----------------------|
|-11-----7--------0--|----------------------|
|-------10-----------|---------8--------3---|
|-----9-----------8--|---9p8-7-----10-------|
|---------------9----|-----------9----6-----|
|--7-----7--------7--|-7--------------------|

|-0------------------7--|----------7-10-9-8-7-6-5-4-3-------|
|-----7-8-----7-8-10----|-----8h10------------------------3-|
|-8-9-------------------|-----------------------------------|
|-----------------------|-----------------------------------|
|-----------------------|-----------------------------------|
|-0--------0------------|--0--------------------------------|

|--7----------------------|
|-11-----7------0-3-2-1-0-|
|-----7-10----------------|
|--0-----0--------0-------|
|-------------------------|
|-------------------------|

|-----------0-----5-7-------|-------------0---3--0-|-8----------------------|
|-----0-2h3---7-8---------0-|-1-3-1-0-1-----1------|---5h8-5----------------|
|--3------------------------|-----------0----------|---------7-5----0-------|
|---------------------------|----------------------|-----------------4-2-0--|
|---------------------------|-3--------------------|-----------------------3|
|---------------------------|----------------------|------------------------|

|---5-----2-----------|---------------------||---0---0---0-------0-----7-|
|------4--------0-----|-------------0-1-0---||-0-------8---8-------8-----|
|------2------5---2-0-|---5---2-----------3-||-----9-----------------9---|
|-----------4---------|-4---1-----4---------||---------------------------|
|-2-------------------|---------3---2-------||---------------------------|
|---------------------|---------------------||-0--------------0----------|

|---------12----12----12----12----------|
|---12-12----12----11----12-------------|
|-----------------------------------7h9-|
|---------------------------------------|
|---------------------------------------|
|-0-------------------------------------|

|---------7---7-----------|---10p7---7--------------------||
|-7-7-7-7---7---------7p0-|--------7-----7p0---0-3-2-1-0--||
|-------------------7-----|------------7------------------||
|-0--------------0--------|-0----------------0------------||
|-------------------------|-------------------------------||
|-------------------------|-------------------------------||

|-----0-2-3-2-0-----0-3-0-|---------------0----3---|
|-1-3---------------------|----------1------1------|
|-------------------------|-------------0----------|
|-------------------------|-------2----------------|
|-3--------------3--------|--3---------------------|
|-------------------------|------------------------|

|-----0-2-3-2-0--------------------|
|---------------3-1-0--------------|
|---------------------2-0----------|
|-------------------------4-2-0----|
|-------------------------------3--|
|----------------------------------|

|--------------------|-0------------0--7--|-----0-------7----|
|----0-0-0-0-0-0-0-0-|----0--8--------11--|-------0-8--------|
|----2-2-2-2-2-2-2-2-|-8----11------------|---0-------9------|
|----1-1-1-1-1-1-1-1-|--------------------|------------------|
|-2------------------|--------------------|------------------|
|--------------------|-0-----0---------0--|-0-----0-------0--|

|--7-----------------|-----7------------|------0-------3--|---------0---3---|
|-11-----7------0-3--|---7-----7p0------|-0----4-------7--|-----1-----1-----|
|-----7-10----0---2--|-------7-----7----|-5--0-------5----|-------0---------|
|--0-----0--------0--|-0-----0-------0--|-----------------|---2-------------|
|--------------------|------------------|-3----3-------3--|-3-----3-------3-|
|--------------------|------------------|-----------------|-----------------|

|--7-----------------|--------------------||
|-11-----7--------0--|--------------------||
|-------10-----------|---------8----------||
|-----9-----------8--|---9p8-7-----10---8-||
|---------------9----|-----------9----6---||
|--7-----7--------7--|-7------------------||

|--7--------------0--|-----7-------0------|
|-11-----8------0----|---8-----8p0--------|
|-----9-11--------8--|-------9------------|
|--------------------|-----0--------------|
|--7--9-----10----9--|-7------------------|
|--------------------|---------8-----7----|

|--7------------------|------7------------|
|-11-----7------0-----|----7-----7p0------|
|-----7-10---------7--|--------7-----7----|
|--0--------------11--|-------------------|
|-----7------9-----7--|----------------0--|
|---------------------|-10---8---7--------|

|-3----0----------|---0-3---0----------|
|-7----4-------0--|-------1-----0------|
|----5-------0-5--|-----------0--------|
|----0----2----0--|--------------------|
|-3---------------|-3---2---0-----3----|
|-----------------|--------------------|

|--7-------------------|------------------------7-8-|
|-11------7--------0---|---------7-10-9-8-7-8-9-----|
|--------10------------|---9-8-9--------------------|
|------9-----------8---|----------------------------|
|----------------9-----|----------------------------|
|--7-7-7--7---7--7-7-7-|-7--------------------------|

|-10--8-10---------10-9-8-7-|
|---------------10----------|
|---------------------------|
|---------------------------|
|--9--9------9------9-------|
|---------------------------|

|----10------12-15p14-12------10-12-10-|-8----8-------8--|
|-10-----------------------------------|----5-------5----|
|--------------------------------------|-----------------|
|--------------------------------------|-----------------|
|--------------------------------------|-----------------|
|--0------0------0---------0-----------|-5--7----8----7--|

|-0-8-7----8--7-8-7----|-8----8-------8---|
|-------10----------10-|------------------|
|----------------------|----8-------8-----|
|----------------------|------------------|
|-0--------------------|-0--0----0----0---|
|-----7----8--7--------|------------------|

|------------10-13-11-10------8-10-8-|
|-10-13------------------------------|
|------------------------------------|
|--0------0------0---------0---------|
|------------------------------------|
|------------------------------------|

                                           To Coda
|-7-----------------------|------------------------||
|----------0--------0-----|-0-0-0-0-0-0-0-0-0-0-0--||
|-------0--------0--------|-0-0-0-0-0-0-0-0-0-0-0--||
|----0--------0--------0--|-2-2-2-2-2-2-2-2-2-2-2--||
|-------------------------|-4-4-4-4-4-4-4-4-4-4-4--||
|-3-----3-----3-----3-----|-2-2-2-2-2-2-2-2-2-2-2--||

|-0----3-----0-7--|-------0-------7----|
|-0--0------------|---------0-8--------|
|-0---------------|-----0-------9------|
|-2---------------|--------------------|
|-2---------------|--------------------|
|-0--0----0----0--|--0----0---0-----0--|

|-7------------0--|----------------------|
|------8-----0----|-------0--------------|
|----9------------|-----0----------------|
|-----------------|---------2-5---2------|
|-----------------|-------------2--------|
|-0--0----0----0--|--0----0---0-----0----|

|-----------------|-----------------8-12\--|
|-----------------|------------8----8-11\--|
|------0-------3--|-----0-9------9--9-12\--|
|-2----------2----|---------10-----10-11\--|
|----1------------|------------------------|
|-0--0----0----0--|--0----0----0-----------|

|------------------|---------------5-||
|---0-5------------|-------0-5-7-8---||
|------------------|-----------------||
|-------4-5--------|-----------------||
|-----------2-7----|-----------------||
|-0-------------7S=|=0---------------||

|-7---------------8p7p5h=7----|-0------------------0--2-3-5-|
|---------0----0---------0--0-|---------0----0--0--0--------|
|---------0----0---------0----|---------0----0-----0--------|
|-----------------------------|--------------------0--------|
|-----5S==7----7---------7----|-----3S==5----5--------------|
|-0---------------------------|-0---------------------------|

|-7---------------12-10-8--7--5-------|
|---------0----0----------------8-7---|
|---------0----0----------------------|
|-------------------------------------|
|-----2S==4----4----------------------|
|-0-----------------------------------|

|-0---------------------5-|-7---------8p7p5h7-10-|-10-----8-8-7-10-8-7-----|
|-----0----0--0--5--7-8---|-----0---0-------6----|--9---9---8----------10--|
|-----0----0--------------|-----------------7----|-10--10---7--------------|
|-----2----2--------------|-----7---7------------|-------------------------|
|-----3----2--------------|-----9---9-------7----|----------7--------------|
|-0-----------------------|-0--10--10-------0----|--0----------------------|

|-7------------------|-5-----------|
|----------5-6-7-8-9-|-5--5--5--5--|
|----5--5------------|-5--5--5--5--|
|----7--7------------|-5--4--3--2--|
|----6--6------------|-0-----------|
|-5--------5---------|-------------|

|-5--------5-7-5-------|-----------7-8-7-10-8-7-5---|
|---8--8---------8-7---|-3------10------------------|
|---5--5-------------8-|---5--5---------------------|
|---7--7---------------|---4--4--0------------------|
|-6------6-------------|-5--------------------------|
|----------------------|----------------------------|

|--7-------7--------------7-10-7--------|
|--------7---7----------7--------10-8-7-|
|------7-------7------7-----------------|
|----9----------------------------------|
|-10-------------10-9-------------------|
|---------------------------------------|

|--------------------------7--------|----------------------|
|-8------8---------------7---10-8-7-|-10--------7-8-10-8-7-|
|------9---9-----------7------------|----9--9--------------|
|---10-------10------7--------------|----7--7--------------|
|-7-------------7-------------------|----------------------|
|-----------------10----------------|--9------7------------|

|------------5-7---------|
|-8--------------8-7-5-8-|
|----9---9---------------|
|----8---8---------------|
|---10--10---------------|
|-8--------8-------------|

|-----------------------------------------|-[7]-------------------|
|-7------------------------------------0--|-----------------------|
|---8-8----------------------------2------|-----------------------|
|---7-7-10-10-7-7-----1-1------1----------|--------------------7--|
|--------9--9-6-6-9-9-0-0---2-------------|---------2-6h7-9s10----|
|-7---------------8-8-----2-2-------------|-----------------------|

|-----------------------|-----------------------|---------------------------|
|------0---0------------|----0---0--------------|------0--0-----------------|
|------0---0------------|----0---0--------------|------0--0-9-7-5-4---------|
|-8-9-------------------|----0---0----------5-7-|-8-9---------------8-5-4---|
|------7---7--2-3-2-1-2s|-7---------2-6-7-9-----|---------------------------|
|---0-------------------|-0---------------------|---0--9--9-----------------|

|----------------------|
|----0--0--------------|
|----0--0--------------|
|-2--2--2------------9-|
|----3--2-2-6h7-9-10---|
|-0--------------------|

|------------------------------------------|----5---5---5---|
|------------------------------------------|----5---5---5---|
|----11-11--9--9---------------------------|----5---5---5---|
|-12----12--------12-12--10-10-9-9-------7-|-9----7-5-4-3-2-|
|-------11-------------------------12-11---|-0--------------|
|--0---------------------------------------|----------------|

|-5--------5-7-5-----11-|-10--------8-7-8-7-8-7---------|
|---8--8---------8-7----|-----------------------10-8-10-|
|---5--5----------------|-----7---7---------------------|
|---7--7----------------|----10--10-0-------------------|
|-6------6--------------|--9----------------------------|
|-----------------------|-------------------------------|

|--7-------7----------------7-8-10-14-12-7-|
|--------7---7------------7----------------|
|------7-------7--------7------------------|
|----9----------------9--------------------|
|-10-------------10-9----------------------|
|------------------------------------------|

|-------------------------7--------|----------------------|
|-8------8--------------7---10-8-7-|-10--------7-8-10-8-7-|
|------9---9----------7------------|----9--9--------------|
|---10-------10-----7--------------|----7--7--------------|
|-7-------------7-5----------------|----------------------|
|----------------------------------|--9------7------------|

                                            D.S. al Coda
|------------5-7---------|-------------------------------|
|-8--------------8-7-5-8-|-7-------------------------0/--|
|----9---9---------------|---8-8---------------------2/--|
|----8---8---------------|---7-7-10-10-7-7-----1-1---1/--|
|---10--10---------------|--------9--9-6-6-9-9-0-0---2/--|
|-8--------8-------------|-7---------------8-8-----2-2/--|

|-^0---^3---^7--|-2------12--|-^0---^3---^7--|-2------12--|
|-^0---^5---^8--|-1s=====11--|-^0---^5---^8--|-1s=====11--|
|-^0---^4---^9--|-2s=====12--|-^0---^4---^9--|-2s=====12--|
|-^2---^2---^9--|-1s=====11--|-^2---^2---^9--|-1s=====11--|
|-^2---^2---^9--|------------|-^2---^2---^9--|------------|
|-^0---^0---^7--|------------|-^0---^0---^7--|------------|

|-^0---^3---8--|-8----8--12\--|-----0---------7--|-^0-------||
|-^0---^0---7--|-7----7--11\--|---0-----------7--|-^0-------||
|-^0---^3---8--|-8----8--12\--|---------0-----8--|-^0-------||
|-^2---^2---9--|-9----9--11\--|-------4-----2-7--|-^2-------||
|-^1---^1---7--|-7----7-------|-----------2---9--|-^2-------||
|-^0---^0---0--|-0----0-------|-0-------------7--|-^0-------||
Добавлено: 22.07.2012
Другие материалы по этой песне:

Страница создана 21.03.2012
http://primanota.ru/astor-piazzolla/primavera-portena-chords.htm
Привет, Гость.
Предлагаем пройти революционный курс по гитаре.
Подарок от PrimaNota.Ru, забирай!