PrimaNota.ru - самый крупный в мире бесплатный архив песенных текстов, аккордов, табулатур и нот


Пьяццолла Астор - Milonga Del Angel Tango - таба, видео

Регистрация Запомнить меня
Войти через:  Facebook Google Twitter Vk Yandex Mail.ru

Пьяццолла Астор - Milonga Del Angel Tango - таба, видео

Печатать
Просмотров: 232
Tuning: E A D G B E  -  Time Signature: 4/4

accompanying MIDI on the Classical Guitar Tablature page

A great piece that should be self-explanatory. A lot of passion in this one.

 |       |       |       |        |       |       |       |        
|5---------------------------3---|5-------------------------------|
|--------5-----------5-----------|--------5-----------5-------5---|
|----5-------4---5---------------|----5-------4---5---------------|
|------------2-------------------|------------2-------------------|
|0-------------------------------|0-------------------------------|
|------------------------0-------|------------------------0-------|

 |       |       |       |        |       |       |       |        
|5---------------------------8---|5-------------------------------|
|--------5-----------5-----------|--------5-----------5-----------|
|----5-------4---5---------------|----5-------4---5---------------|
|------------2-------------------|------------2-------------------|
|0-------------------------------|0-------------------------------|
|------------------------0-------|------------------------0-------|

 |       |       |       |        |       |       |       |        
|8--------------------------7--5-|8-----------------------7-8-7-5-|
|--------5-----------5-----------|--------5-----------5-----------|
|----5-----------5---------------|----5-----------5---------------|
|--------------------------------|--------------------------------|
|------------8-----------7-------|------------8-----------7-------|
|5-------------------------------|5-------------------------------|

 |       |       |       |        |       |       |       |        
|8-----------------------7--6--5-|0-------------------------------|
|--------5-----------5-----------|------------1---1---------------|
|----5-----------5---------------|--------------------------------|
|--------------------------------|----2---3-----------3---3---2---|
|------------8-----------7-------|0-------------------------------|
|5-------------------------------|--------------------------------|

 |       |       |       |        |       |       |       |        
|5-------------------3---5--3----|5-----------------------3-------|
|------------5---6-------------6-|----------------3---5-------6---|
|----2---5-----------------------|------------4-------------------|
|--------------------------------|--------3-----------------------|
|5-------------------------------|----5---------------------------|
|--------------------------------|3-------------------------------|

 |       |       |       |        |       |       |       |        
|0---1---3-----------------------|--------------------------------|
|0-----------------------3-------|--------1---------------0-------|
|0-----------------------0-------|--------0---------------0-------|
|2-------------------0-----------|----2---------------0-----------|
|3---------------2---------------|0-------------------------------|
|--------------------------------|----------------3---------------|

 |       |       |       |        |       |       |       |        
|------------0---1-------3-1-0---|0-------------------------------|
|--------3-------0-------------3-|0-----------3---3-1-0-3-1-0-----|
|----2-----------2---------------|1---------------2---------------|
|----0---------------------------|----------------3---------------|
|------------3---2---------------|--------------------------------|
|1-------------------------------|0---------------0---------------|

 |       |       |       |        |       |       |       |        
|--------------------------------|----------------5---5---7---7---|
|1---0-0-1---0---------------0---|--------5---5-------------------|
|2---------------2-------2-------|5---5---4-----------------------|
|2---------------2---2-----------|--------------------------------|
|0---------------0---------------|--------8-----------------------|
|--------------------------------|3-------------------------------|

 |       |       |       |        |       |       |       |        
|8---7-------7-8-10--8---7-8---7-|3-------------------1---3-1-0---|
|7-------10------------------10--|----------------1-------------3-|
|5-------------------------------|------------2-------------------|
|7-------------------------------|--------1-----------------------|
|--------------------------------|----3---------------------------|
|5-------------------------------|1-------------------------------|

 |       |       |       |        |       |       |       |        
|0-------------------------------|--------------------------------|
|--------1-------3---0-------1---|--------0-----------------------|
|------------2-----------0-------|2-----------0-------2-----------|
|--------------------------------|----3-----------2-------3---0---|
|--------------------------------|--------------------------------|
|0-------------------------------|--------------------------------|

 |       |       |       |        |       |       |       |        
|8-----------------------7---5---|8-----------------------7-8-7-5-|
|--------5---5---5---------------|--------5---5---5---------------|
|--------5---5---5---------------|--------5---5---5---------------|
|--------------------------------|--------------------------------|
|----8-----------7---------------|----8-----------7---------------|
|5-------------------------------|5-------------------------------|

 |       |       |       |        |       |       |       |        
|8-----------------------7-6-5---|0---------------------------0-1-|
|--------5---5---5---------------|--------1---1---1-----0-1-3-----|
|--------5---5---5---------------|--------2---2---2---2-----------|
|--------------------------------|--------3---3---3---------------|
|----8-----------7---------------|0-------------------------------|
|5-------------------------------|--------------------------------|

 |       |       |       |        |       |       |       |        
|3---------------------3---5-3---|5-5---------------8---5---------|
|------------------3-----------6-|--------------8-----------8-5---|
|--------------4-----------------|--------------9---------------5-|
|----------3---------------------|--------------8-----------------|
|------5-------------------------|--------------------------------|
|--3-----------------------------|--8-----------------------------|

 |       |       |       |        |       |       |       |        
|--------------------------------|--------------------------------|
|--------------0-----------------|--------------------------------|
|--2-----------2-----------------|--0-----------------------------|
|--0-----------0-----------------|--------------3---3---2---0-----|
|--0-----------2---3-------2-----|------------------------------3-|
|--1-----------------------------|--------------------------------|

 |       |       |       |        |       |       |       |        
|--------------0---1-------3-1-0-|--0-----------------------------|
|----------3---------------------|3-0-----------3---3-1-0-3-1-0---|
|------2-------------------------|--1---------------2-------------|
|------0-------------------------|------------------3-------------|
|--2-----------3---2-------------|--------------------------------|
|--------------------------------|--0---------------0-------------|

 |       |       |       |        |       |       |       |        
|--------------------------------|------------------5---4---5---7-|
|--1---0-0-1---0-------0---1---0-|--------------5-----------------|
|--2---------------2-------------|--2---4---5---------------------|
|--2---------------2-------------|--2-----------------------------|
|--0---------------0-------------|--------------------------------|
|--------------------------------|--3-----------------------------|

 |       |       |       |        |       |       |       |        
|--8-----------7---8---7---108-7-|5-7-----------------------5-4---|
|--7-----------------------------|----------4-------------7-----7-|
|--8-----------------------------|----------------------7---------|
|--7-----------------------------|------7-------------------------|
|--0-----------------------------|--8-----------8---7-------------|
|--------------------------------|--------------------------------|

 |       |       |       |        |       |       |       |        
|4-5-----------------------------|--5-----------------------------|
|----------5-----------5---------|----------5-----------5---------|
|------5-------4---5-------------|------5-------4---5-------------|
|--------------2-----------------|--------------2-----------------|
|--------------------------------|--------------------------------|
|--5-----------------------0-----|--5-----------------------0-----|

 |       |       |       |        |       |       |       |        
|----------------------3---------|--5-3-5-------------------------|
|------5---6-------5---2-------5-|--3-----------------------------|
|------6---6-------6-------------|--3-----------3---3---2---------|
|------5---5-------5---5---------|--3-----------------------3---2-|
|--0-----------------------0-----|--0-----------------------------|
|--------------6-----------------|--------------------------------|

 |       |       |       |        |       |       |       |        
|----------0---------------------|--0---0-------------------------|
|------3-----------1---3-------0-|--1-3---------------------------|
|------2-----------2-------------|--------------------------------|
|--0-----------0-----------0-----|--0-----------------------------|
|--------------------------------|--------------0-------0---------|
|--------------------------------|------------------4-------0---1-|

 |       |       |       |        |       |       |       |        
|------2---3-------2---5-------2-|--7-5-7-------------------------|
|------1---1-------5---5---------|--7-----------------------------|
|------2---2-------2---2---------|--9-----------------------------|
|--------------------------------|--10----------------------------|
|--------------3-----------2-----|--------------------------------|
|--2-----------------------------|--------------8---8---7---3---2-|

 |       |       |       |        |       |       |       |        
|--------------------------------|--2-0-2-------------------------|
|------0---1-------2---3-------4-|--0-----------------------------|
|--------------------------------|--0-----------------------------|
|----------------------0-------1-|--------------------------------|
|------2---3-------4-------------|--------------------------------|
|--0-----------------------------|--0-------------------0---1---2-|

 |       |       |       |        |       |       |       |        
|------------------0---1-------2-|--5-3-5-------------------------|
|------3---4---------------------|--3-----------------------------|
|--------------------------------|--3-----------------------------|
|------0---1-------2---3-------4-|--------------------------------|
|--------------------------------|--------------------------------|
|--3-----------------------------|--3-------------------3---4---5-|

 |       |       |       |        |       |       |       |        
|------1---2-------3---4-------5-|--8-7-8-------------------------|
|--------------------------------|--6-------------------6---------|
|----------------------1-------2-|--6-------------------7-------7-|
|------3---4-------5-------------|--------------------------------|
|--1-----------------------------|------------------9-------8-----|
|--------------------------------|--6-----------------------------|

 |       |       |       |        |       |       |       |        
|--8-------9---------------6-----|--8---------------6-------------|
|--------------------------------|----------9---------------------|
|------6-------6-------6-------6-|------6-------6-------6-------6-|
|--------------------------------|--------------------------------|
|----------8-------8-------8-----|----------8-------8-------8-----|
|--6-----------------------6-----|--6---------------6-------------|

 |       |       |       |        |       |       |       |        
|----------4---------------------|--2-----------1-----------------|
|--7-----------------------6-----|--3---------------2-------------|
|------6-------6-------6-------6-|--1-------------------3---------|
|----------3-------3-------3-----|--------------------------4-----|
|--------------------------------|--1-----------------------------|
|--6-----------------------6-----|--------------------------------|

 |       |       |       |        |       |       |       |        
|----------1---------------------|----------1-----------1---------|
|------2---------------2---------|------2-----------2-------------|
|--------------3---3-------------|--------------3-----------------|
|--3-----------4-----------------|--------------4-----------3-----|
|--1-----------------------------|--1-----------------------------|
|--------------------------1-----|--------------------------------|

 |       |       |       |        |       |       |       |        
|--------------1-----------3---2-|--1-----------------------------|
|--4-----------------------------|------1-------4-----------2---1-|
|------3-----------3-------------|------------------2-------------|
|--1-------4-----------3---------|----------3-----------3---------|
|--------------4-----------3---1-|--0-----------------------------|
|--------------------------------|--------------1-----------------|

 |       |       |       |        |       |       |       |        
|----------1---------------------|--8-----------6-----------------|
|--2---4---------------2-------2-|----------------------9---7---6-|
|------------------3-------------|------6-----------6-------------|
|--------------4-----------3-----|----------8---------------------|
|--1-----------------------------|--------------8-----------------|
|--------------------------------|--4-----------------------4-----|

 |       |       |       |        |       |       |       |        
|--0-----------------------------|--0-----------------------------|
|--------------1-----------------|----------2---1-----------------|
|------3-------------------3-----|------3-------------------3-----|
|----------------------2---------|----------------------1---------|
|--------------------------------|--------------------------------|
|--3---------------------------3-|--2---------------------------2-|

 |       |       |       |        |       |       |       |        
|--1-----------2-----------1-----|--------------------------------|
|------1-----------1-----------1-|--4-----------2-----------1-----|
|----------2-----------2---------|------2-----------2---------2---|
|--------------------------------|----------1-----------1-------1-|
|--------------------------------|--------------------------------|
|--1-----------------------------|--1-----------------------------|

 |       |       |       |        |       |       |       |        
|----------1-----------1---------|----------1-----------1---------|
|----------2-----------2---------|----------2-----------2---------|
|------3-----------3-------------|------3-----------3-------------|
|--------------4-----------3-----|--------------4-----------3-----|
|--1-----------------------------|--1-----------------------------|
|1-------------------------------|--------------------------------|

 |       |       |       |        |       |       |       |        
|----------0-----------0---------|----------0-----------0---------|
|----------1-----------1---------|----------1-----------1---------|
|------2-----------2-------------|------2-----------2-------------|
|--------------3-----------2-----|--------------3-----------2-----|
|--0-----------------------------|--0-----------------------------|
|--------------------------------|--------------------------------|

 |       |       |       |        |       |       |       |        
|----------0-----------0-------3-|--5-----------------------------|
|------1-------0---1-------------|----------5-----------5-------5-|
|--------------------------------|------5-------4---5-------------|
|--------------2-----------------|--------------2-----------------|
|--0-----------------------------|--0-----------------------------|
|--------------------------0-----|--------------------------0-----|

 |       |       |       |        |       |       |       |        
|--5---------------------------8-|--5-----------------------------|
|----------5-----------5---------|----------5-----------5---------|
|------5-------4---5-------------|------5-------4---5-------------|
|--------------2-----------------|--------------2-----------------|
|--0-----------------------------|--0-----------------------------|
|--------------------------0-----|--------------------------0-----|

 |       |       |       |        |       |       |       |        
|--8-------------------------7-5-|--8-----------------------7-8-7-|
|----------5-----------5---------|----------5-----------5---------|
|------5-----------5-------------|------5-----------5-------------|
|--------------------------------|--------------------------------|
|--------------8-----------7-----|--------------8-----------7-----|
|--5-----------------------------|--5-----------------------------|

 |       |       |       |        |       |       |       |        
|5-8-----------------------7-6-5-|--------------------------------|
|----------5-----------5---------|--5-----------------------------|
|------5-----------5-------------|--------------5---5-------------|
|--------------------------------|------2---3-----------3---3---2-|
|--------------8-----------7-----|--0-----------------------------|
|--5-----------------------------|--------------------------------|

 |       |       |       |        |       |       |       |        
|--5-------------------3---5-----|--5-----------------------3-----|
|--------------5---6-------------|------------------3---5-------6-|
|------2---5---------------------|--------------4-----------------|
|--------------------------------|----------3---------------------|
|--5-----------------------------|------5-------------------------|
|--------------------------------|--3-----------------------------|

 |       |       |       |        |       |       |       |        
|--0---1---3---------------------|--------------------------------|
|--0-----------------------3-----|----------1---------------0-----|
|--0-----------------------0-----|----------0---------------0-----|
|--2-------------------0---------|------2---------------0---------|
|--3---------------2-------------|--0-----------------------------|
|--------------------------------|------------------3-------------|

 |       |       |       |        |       |       |       |        
|--------------0---1-------3-1-0-|--0-----------------------------|
|----------3-------0-------------|3-0-----------3---3-1-0-3-1-0---|
|------2-----------2-------------|--1---------------2-------------|
|------0-------------------------|------------------3-------------|
|--------------3---2-------------|--------------------------------|
|--1-----------------------------|--0---------------0-------------|

 |       |       |       |        |       |       |       |        
|--------------------------------|------------------5---5---7---7-|
|--1---0-0-1---0---------------0-|----------5---5-----------------|
|--2---------------2-------2-----|--5---5---4---------------------|
|--2---------------2---2---------|--------------------------------|
|--0---------------0-------------|----------8---------------------|
|--------------------------------|--3-----------------------------|

 |       |       |       |        |       |       |       |        
|--8---7-------7-8-10--8---7-8---|7-3-----------------------------|
|--7-------10------------------10|----------------------6---8-6-5-|
|--5-----------------------------|------------------5-------------|
|--7-----------------------------|--------------7-----------------|
|--------------------------------|------3---6---------------------|
|--5-----------------------------|--1-----------------------------|

 |       |       |       |        |       |       |       |        
|--0-----------------------------|--------------------------------|
|3---------1-------3---0-------1-|----------0---------------------|
|--------------2-----------0-----|--2-----------0-------2---------|
|--------------------------------|------3-----------2-------3---0-|
|--------------------------------|--------------------------------|
|--0-----------------------------|--------------------------------|

 |       |       |       |        |       |       |       |        
|--8-----------------------7---5-|--8-----------------------7-8-7-|
|----------5---5---5-------------|----------5---5---5-------------|
|----------5---5---5-------------|----------5---5---5-------------|
|--------------------------------|--------------------------------|
|------8-----------7-------------|------8-----------7-------------|
|--5-----------------------------|--5-----------------------------|

 |       |       |       |        |       |       |       |        
|5-8-----------------------7-6-5-|--------------------------------|
|----------5---5---5-------------|--5-------------------------3-5-|
|----------5---5---5-------------|----------5---5---5---2-4-5-----|
|--------------------------------|----------7---7---7-------------|
|------8-----------7-------------|----------8---8---8-------------|
|--5-----------------------------|--5-----------------------------|

 |       |       |       |        |       |       |       |        
|--3---------------------3---5-3-|--5-5---------------8---5-------|
|6-------------------3-----------|6---------------8-----------8-5-|
|----------------4---------------|----------------9---------------|
|------------3-------------------|----------------8---------------|
|--------5-----------------------|--------------------------------|
|----3---------------------------|----8---------------------------|

 |       |       |       |        |       |       |       |        
|--------------------------------|--------------------------------|
|1---------------0---------------|--------------------------------|
|----2-----------2---------------|----0---------------------------|
|----0-----------0---------------|----------------3---3---2---0---|
|----0-----------2---3-------2---|--------------------------------|
|----1---------------------------|--------------------------------|

 |       |       |       |        |       |       |       |        
|----------------0---1-------3-1-|0---0---------------------------|
|------------3-------------------|--3-0-----------3---3-1-0-3-1---|
|--------2-----------------------|----1---------------2-----------|
|--------0-----------------------|--------------------3-----------|
|3---2-----------3---2-----------|--------------------------------|
|--------------------------------|----0---------------0-----------|

 |       |       |       |        |       |       |       |        
|--------------------------------|--------------------5---4---5---|
|-0--1---0-0-1---0-------0---1---|----------------5---------------|
|----2---------------2-----------|4---2---4---5-------------------|
|----2---------------2-----------|----2---------------------------|
|----0---------------0-----------|--------------------------------|
|--------------------------------|----3---------------------------|

 |       |       |       |        |       |       |       |        
|7---8-----------7---8---7---108-|7-5-7-----------------------5-4-|
|----7---------------------------|------------4-------------7-----|
|----8---------------------------|------------------------7-------|
|----7---------------------------|--------7-----------------------|
|----0---------------------------|----8-----------8---7-----------|
|--------------------------------|--------------------------------|

 |       |       |       |        |       |       |       |        
|2-4-5---------------------------|----5---------------------------|
|------------5-----------5-------|------------5-----------5-------|
|--------5-------4---5-----------|--------5-------4---5-----------|
|----------------2---------------|----------------2---------------|
|----0---------------------------|----0---------------------------|
|----------------------------0---|----------------------------0---|

 |       |       |       |        |       |       |       |        
|3---5---------------------------|0-----------0-----------0-------|
|------------5-----------5-------|--------1-------0---1-----------|
|--------5-------4---5-----------|--------------------------------|
|----------------2---------------|----------------2---------------|
|----0---------------------------|----0---------------------------|
|----------------------------0---|----------------------------0---|

 |       |       |       |        |       |       |       |        
|8-------------------------------|------------------0-0----------||
|------------5-----------5-------|--------------0-1---1----------||
|--------5-------4---5-----------|------------2-------2----------||
|----------------2---------------|--------2-3---------3----------||
|--------------------------------|----0---------------0----------||
|----5-----------------------0---|-------------------------------||
Добавлено: 03.03.2012
Другие материалы по этой песне:
  • Аккорды и текст

Страница создана 03.03.2012
http://primanota.ru/astor-piazzolla/milonga-del-angel-tango-chords.htm
Привет, Гость.
Предлагаем пройти революционный курс по гитаре.
Подарок от PrimaNota.Ru, забирай!