PrimaNota.ru - самый крупный в мире бесплатный архив песенных текстов, аккордов, табулатур и нот


Asking Alexandria - White Line Fever - таба, бас-таба, видео

Регистрация Запомнить меня
Войти через:  Facebook Google Twitter Vk Yandex Mail.ru

Asking Alexandria - White Line Fever - таба, бас-таба, видео

Печатать
Просмотров: 453
Asking Alexandria - White Line Fever
From Death to Destiny (2013)
Transcribed by Hardlycore

Tuning - Drop B (B F# B E G# C#)

GTR I (Left) - B F# B E G# C#
GTR II (Right) - B F# B E G# C#
GTR III (Left) - B F# B E G# C#
GTR IV (Right)- B F# B E G# C#
GTR V (Center) - B F# B E G# C#

*Note: If you like this tab, please take a second to rate it.*




[INTRO]

GTR I & II (pickslide)
|--------------|
|--------------|
|--------------|
|--------------|
|-////////////-|
|-////////////-|

 GTR I & II (riff a)
|--------------------|-------------------------|----------------------|-------------|
|--------------------|-------------------------|----------------------|-------------|
|--------------------|3------------------------|5---------------------|-------------|
|-0------------------|3------------------------|5---------------------|5------------|
|-0------------------|1------------------------|3---------------------|5------------|
|-0------------------|-------------------------|----------------------|5------------|
|
|GTR III (riff a)
|--------------------|-------------------------|----------------------|-------------|
|--------------------|-------------------------|----------------------|-------------|
|--------------------|-------------------------|----------------------|-------------|
|12~---------12--14--|15---14\--10~-----10--12-|/15--14\---10---10----|10-/12-------|
|---------15---------|-------------------------|-------------------12-|-------------|
|--------------------|-------------------------|----------------------|-------------|
|PM       .  .                                                     .
|
|GTR IV (riff a)                                                  
|--------------------|-------------------------|----------------------|-------------|
|--------------------|-------------------------|----------------------|-------------|
|--------------------|-------------------------|----------------------|-------------|
|15~------14-15--17--|19---17\--14~-----14--15-|/19--17\---14---14----|14-/15-------|
|--------------------|-------------------------|-------------------15-|-------------|
|--------------------|-------------------------|----------------------|-------------|
 PM       .  .                                                     .



 GTR I & II
|------------------------------------------|
|------------------------------------------|
|------------------------------------------|
|-(5)--------------------------------------|
|-(5)--------------------------------------|
|-(5)--------------------------------------|
|
|
|GTR III (tremolo pick each note w/16th notes)
|------------------------------------------|
|-------------------------------------18~--|
|----------------12---14---15---19---------|
|12---14---15------------------------------|
|------------------------------------------|
|------------------------------------------|
|
|
|GTR IV (tremolo pick each note w/16th notes)
|------------------------------------------|
|--------------------------17---18----15~--|
|----------15----17---19-------------------|
|17---19-----------------------------------|
|------------------------------------------|
|------------------------------------------|



GTR I & II *Note: This part is weird to tab out, but it’s super easy to play.
|------------------|-------------------|-----------------|---------------|
|------------------|-------------------|-----------------|---------------|
|------------------|-------------------|-----------------|---------------|
|-0---0---0--0---0-|--0---0---0--0---0-|--0--0--0---0--0-|////-----------|
|-0---0---0--0---0-|--0---0---0--0---0-|--0--0--0---0--0-|////-----/12\--|
|-0---0---0--0---0-|--0---0---0--0---0-|--0--0--0---0--0-|(ps)-----/12\--|




[VERSE]


 GTR I & II (riff b)
||-------------------------------------------|
||-------------------------------------------|
||-------------------------------------------|
||3--0--------3--0----0---0-------3--0--6--0-|
||3--0----0-0-3--0----0---0---0-0-3--0--6--0-|
||3--0----0-0-3--0----0---0---0-0-3--0--6--0-|
PM        . .                 . . 


 GTR I & II (riff b cont.)
|-----------------------------------------------||
|-----------------------------------------------||
|-----------------------------------------------||
|3--0--------3--0----0---0----------------------|| x2
|3--0----0-0-3--0----0---0---0------------------||
|3--0----0-0-3--0----0---0---0--6-6-3-3-5-5-0-0-||
PM       . .                    . . . . . . . . 



[PRE-CHORUS]


GTR I & II (riff c)
|------------------------------------------------|
|------------------------------------------------|
|------------------------------------------------|
|3--3--3--0--0--0--6--6--6--0--0--0--3--0--3--5--|
|3--3--3--0--0--0--6--6--6--0--0--0--3--0--3--5--|
|3--3--3--0--0--0--6--6--6--0--0--0--3--0--3--5--|

GTR I & II (riff c cont.)
|-------------------------------------------------|
|-------------------------------------------------|
|-------------------------------------------------|
|3--3--3--0--0--0--6--6--6--0--0--0--8--5--8--10--|
|3--3--3--0--0--0--6--6--6--0--0--0--8--5--8--10--|
|3--3--3--0--0--0--6--6--6--0--0--0--8--5--8--10--|



[CHORUS]


 GTR I & II (riff d)
||------------------------|----------------|----------------|----------------|
||------------------------|----------------|----------------|----------------|
||------------------------|----------------|----------------|----------------|
||12-12-12-12-12-12-12-12-|8-8-8-8-8-8-8-8-|3-3-3-3-3-3-3-3-|7-7-7-7-7-7-7-7-|
||12-12-12-12-12-12-12-12-|8-8-8-8-8-8-8-8-|3-3-3-3-3-3-3-3-|7-7-7-7-7-7-7-7-|
||12-12-12-12-12-12-12-12-|8-8-8-8-8-8-8-8-|3-3-3-3-3-3-3-3-|7-7-7-7-7-7-7-7-|


 GTR I & II (riff d cont.)
|------------------------|----------------|----------------|-------------------||
|------------------------|----------------|----------------|-------------------||
|------------------------|----------------|----------------|-------------------||
|12-12-12-12-12-12-12-12-|8-8-8-8-8-8-8-8-|3-3-3-3-3-3-3-3-|---3-0-3-5/6-5-3-5-|| x2
|12-12-12-12-12-12-12-12-|8-8-8-8-8-8-8-8-|3-3-3-3-3-3-3-3-|---3-0-3-5/6-5-3-5-||
|12-12-12-12-12-12-12-12-|8-8-8-8-8-8-8-8-|3-3-3-3-3-3-3-3-|---3-0-3-5/6-5-3-5-||



 GTR I & II (riff d2)
|------------------------------------------------|--------------|
|------------------------------------------------|--------------|
|------------------------------------------------|--------------|
|6--6--6--5--5--5--3--3--3--5--5--5--5--3--1--0--|(0)-----------|
|6--6--6--5--5--5--3--3--3--5--5--5--5--3--1--0--|(0)-----------|
|6--6--6--5--5--5--3--3--3--5--5--5--5--3--1--0--|(0)-----------|



[VERSE]
GTR I & II (riff b) x2

[PRE-CHORUS]
GTR I & II (riff c)

[CHORUS]
GTR I & II (riff d) x2
GTR I & II (riff d2)


[BRIDGE]


    
 GTR I (riff e)
|----------------------------------|----------------------------------|
|----------------------------------|----------------------------------|
|----------------------------------|----------------------------------|
|----------------------------------|----------------------------------|
|--0---0---0---8~-------0--8--10~--|0---0---0---8~--------0---8--7~---|
|--0---0---0------------0----------|0---0---0-------------0-----------|
|PM.   .   .            .           .   .   .             .
|
|GTR II (riff e)
|----------------------------------|----------------------------------|
|----------------------------------|----------------------------------|
|----------------------------------|----------------------------------|
|----------------------------------|----------------------------------|
|--0---0---0---12~------0--12--14~-|0---0---0---12~-------0---12--10~-|
|--0---0---0------------0----------|0---0---0-------------0-----------|
PM .   .   .            .           .   .   .             .



GTR I (riff e cont.)
|----------------------------------|------------------------------|
|----------------------------------|------------------------------|
|----------------------------------|------------------------------|
|----------------------------------|------------------------------|
|--0---0---0---8~-------0--8--10~--|1-1-1-1-1-1-1-0-0-0-0-0-0-0-0-|
|--0---0---0------------0----------|------------------------------|
|PM.   .   .            .           
|
|GTR II (riff e cont.)
|----------------------------------|------------------------------|
|----------------------------------|------------------------------|
|----------------------------------|------------------------------|
|----------------------------------|8-------------7---------------|
|--0---0---0---12~------0--12--14~-|8-------------7---------------|
|--0---0---0------------0----------|8-------------7---------------|
PM .   .   .            .           




GTR I (riff e2)                                             A.H. A.H
|----------------------------------|----------------------------------|
|----------------------------------|----------------------------------|
|----------------------------------|------------------------*10-*9----|
|----------------------------------|----------------------------------|
|--0---0---0---8~-------0--8--7~---|0---0---0---8~--------0-----------|
|--0---0---0------------0----------|0---0---0-------------0-----------|
|PM.   .   .            .           .   .   .             .
|
|GTR II (riff e2)                                           A.H. A.H.
|----------------------------------|----------------------------------|
|----------------------------------|----------------------------------|
|----------------------------------|------------------------*14-*12---|
|----------------------------------|----------------------------------|
|--0---0---0---12~------0--12--10~-|0---0---0---12~-------0-----------|
|--0---0---0------------0----------|0---0---0-------------0-----------|
PM .   .   .            .           .   .   .             .



 GTR I (riff e2 cont.)
|----------------------------------|------------------------------|
|----------------------------------|------------------------------|
|----------------------------------|------------------------------|
|----------------------------------|------------------------------|
|--0---0---0---8~-------0--8--10~--|1-1-1-1-1-1-1-0-0-0-0-0-0-0-0-|
|--0---0---0------------0----------|------------------------------|
|PM.   .   .            .           
|
|GTR II (riff e2 cont.)
|----------------------------------|------------------------------|
|----------------------------------|------------------------------|
|----------------------------------|------------------------------|
|----------------------------------|8-------------7---------------|
|--0---0---0---12~------0--12--14~-|8-------------7---------------|
|--0---0---0------------0----------|8-------------7---------------|
PM .   .   .            .           


GTR I & II (riff a)
GTR III & IV (riff a)

GTR V (pickslide)
|---------------|-----------------|
|---------------|-----------------|
|---------------|-----------------|
|---------------|-----------------|
|---------------|----////////////-|
|---------------|----////////////-|



[CHORUS]
GTR I & II (riff d) x2


[OUTRO]
GTR I & II (riff d2)



[END]




--------------------[[[LEGEND]]]----------------------

p - Pull off
h - Hammer-on
b - bend note up
t - Tapped note (tap the note directly after the ‘t’)
/ - slide up to note
PM . - Palm Mute notes above the .
|| - indicates the end of a repeated part
x4 - indicates a riff that is repeated 4 times
A.H. or * - Artificial Harmonic/Pinch Harmonic/Squealie
//// or ps - Pickslide
Добавлено: 31.05.2014
Другие материалы по этой песне:
  • Аккорды и текст

Страница создана 27.08.2013
http://primanota.ru/asking-alexandria/white-line-fever-chords.htm
Привет, Гость.
Предлагаем пройти революционный курс по гитаре.
Подарок от PrimaNota.Ru, забирай!