PrimaNota.ru - самый крупный в мире бесплатный архив песенных текстов, аккордов, табулатур и нот


Asking Alexandria - Dead - таба, бас-таба, видео

Регистрация Запомнить меня
Войти через:  Facebook Google Twitter Vk Yandex Mail.ru

Asking Alexandria - Dead - таба, бас-таба, видео

Печатать
Просмотров: 368
Уроки эстрадного вокала в Санкт-Петербурге
* = palm mute
/ = slide
v = vibrato
b = bend

Gtr 1 = Lead (Ben)
Gtr 2 = Rhythm (Cameron)

Drop B tuning

Intro
0:03-0:13
C#|----------------------------------------------------------|
G#|----------------------------------------------------------|
E|-----------------------------------------------------------|
B|-----------------------------------------------------------|
F#|----------------------------------------------------------|
B|-0-3-1-0-4-0-1-3-0-3-1-0-4-0-1-3-0-3-1-0-4-0-1-3-0-3-1-0-1b|

0:13-0:23
C#|----------------------------------------------------------|
G#|----------------------------------------------------------|
E|-----------------------------------------------------------|
B|-----------------------------------------------------------|
F#|----------------------------------------------------------|
B|-0-3-1-0-4-0-1-3-0-3-1-0-4-0-1-3-0-3-1-0-4-0-1-3-0-3-1-0-1b|
   * * * * * * * * * * * * * * * * * * * * * * * * * * * *



0:23-0:43
Repeat twice
C#|------------------------------------------------------------------|
G#|------------------------------------------------------------------|
E|-------------------------------------------------------------------|
B|-------------------------------------------------------------------|
F#|------------------------------------------------------------------|
B|-1p0-0-1p0-0-1p0-1p0-0-1p0-0-8888-1p0-0-1p0-0-1p0-1p0-0-1p0-0-7777-|


0:43-0:49
C#|------------------------------------------------------------|
G#|------------------------------------------------------------|
E|-------------------------------------------------------------|
B|-------------------------------------------------------------|
F#|00-0000-00-00-0000------------------------------------------|
B|-11-1111-11-11-1111-----12b----------------------------------|
   ** **** ** ** ****



0:49-0:54
C#|------------------------------------------------------------|
G#|------------------------------------------------------------|
E|-------------------------------------------------------------|
B|-------------------------------------------------------------|
F#|------------------------------------------------------------|
B|-1p0-0-1p0-0-1p0-1p0-0-1p0-0-8888----------------------------|



Gtr 2 Chorus: 0:57-1:19
This plays twice
C#|----------------------------------------------------------|
G#|----------------------------------------------------------|
E|-----------------------------------------------------------|
B|-----------------------------------------------------------|
F#|----------------------------------------------------------|
B|-0000000000-00000-0000010101010-8888888888-88888-8887777555|


Gtr 1 Chorus Lead Melody: 0:57-1:19
C#|----------------------------------------------------------------------------|
G#|----------------------------------------------------------------------------|
E|-----------------------------------------------------------------------------|
B|-10~-12~-10~-12~-14~-12~-15~-17~-15~-10~-12~-10~-12~-14~-12~-15~-17b-15-12~--|
F#|----------------------------------------------------------------------------|
B|-----------------------------------------------------------------------------|


1:19-1:24
C#|----------------------------------------------------------|
G#|----------------------------------------------------------|
E|-----------------------------------------------------------|
B|-----------------------------------------------------------|
F#|----------------------------------------------------------|
B|-0-3-1-0-4-0-1-3-0-3-1-0-4-0-1-3-0-3-1-0-4-0-1-3-0-3-1-0-1b|



1:24-1:29
C#|----------------------------------------------------------|
G#|----------------------------------------------------------|
E|-----------------------------------------------------------|
B|-----------------------------------------------------------|
F#|----------------------------------------------------------|
B|-0-3-1-0-4-0-1-3-0-3-1-0-4-0-1-3-0-3-1-0-4-0-1-3-0-3-1-0-1b|
   * * * * * * * * * * * * * * * * * * * * * * * * * * * *


1:29-1:40
Play the opens fast
C#|----------------------------------------------------------------|
G#|----------------------------------------------------------4444--|
E|-----------------------------------------------------------3333--|
B|-----------------------------------------------------------------|
F#|----------------------------------------------------------------|
B|-0-3-1-0-4-3-1-3-0-3-1-0-4-3-1-3-0-3-1-0-4-3-1-3-0-3-1-0---------|


1:40
C#|----------------------------------------------------------|
G#|----------------------------------------------------------|
E|-----------------------------------------------------------|
B|-----------------------------------------------------------|
F#|----------------------------------------------------------|
B|--0000-00-000-00-0-3-1-0-1b--------------------------------|
    **** ** *** ** * * * *


1:43-2:03
This plays 4 times
C#|----------------------------------------------------------|
G#|----------------------------------------------------------|
E|-----------------------------------------------------------|
B|-----------------------------------------------------------|
F#|000000000-000-00-00-000-00-00-00--------------------------|
B|-000000000-000-00-00-000-00-00-00--0-3-1-0--1b-------------|
   ********* *** ** ** *** ** ** **  * * * *


2:04-2:24 REPEAT CHORUS




2:24-2:47 Bens Lead Melody/Solo
Gtr 1
C#|---------------------------------------------------------------------------------|
G#|---15-17-17b-----17-17b----16----19-----17-19-19b----19-19b----16----19----------|
E|-14~----------14~--------14~---18~----16~----------16-------16-----18-------16~---|
B|----------------------------------------------------------------------------------|
F#|---------------------------------------------------------------------------------|
B|----------------------------------------------------------------------------------|


2:24-2:47
Gtr 2 (Not really sure about this part)
C#|----------------------------------------------------------|
G#|----------------------------------------------------------|
E|-----------------------------------------------------------|
B|---0---10--8---10----------0~------------------------------|
F#|--0---10--8---10----------0~------------------------------|
B|---0---10--8---10----------0~------------------------------|
     PLAY TWICE


2:57-3:09
For strumming pattern, just follow the drums
C#|----------------------------------------------------------|
G#|----------------------------------------------------------|
E|---7/-10/6/-3----------------------------------------------|
B|---x--x--x--x----------------------------------------------|
F#|--5/-8/-4/-1----------------------------------------------|
B|-----------------------------------------------------------|

3
x only gets played during the first half part of this part
1


3:11
C#|----------------------------------------------------------|
G#|----------------------------------------------------------|
E|-----------------------------------------------------------|
B|-----------------------------------------------------------|
F#|0000-0-0-00-0000-00-0-000-00-00-000000--------------------|
B|-0000-0-0-00-0000-00-0-000-00-00-111111--------------------|
   **** * * ** **** ** * *** ** ** ******



This is my first tab Ive ever done, so please come with tips and comments. Rate it 
aswell please, so I know how to make better tabs in the future.
Thanks! :)
Добавлено: 21.05.2014
Другие материалы по этой песне:

Страница создана 21.05.2014
http://primanota.ru/asking-alexandria/dead-chords.htm
Привет, Гость.
Предлагаем пройти революционный курс по гитаре.
Подарок от PrimaNota.Ru, забирай!