PrimaNota.ru - самый крупный в мире бесплатный архив песенных текстов, аккордов, табулатур и нот


Ashtar Command - China - аккорды и текст, таба, видео

Регистрация Запомнить меня
Войти через:  Facebook Google Twitter Vk Yandex Mail.ru

Ashtar Command - China - аккорды и текст, таба, видео

Печатать
Просмотров: 481
China
Ashtar Command
just my take on this incredibly beautiful song...

it's a great composition of quite some instruments so these chords are just what sounds closest to
the whole to me. also there are more than one vocals so it's a bit tricky. just create your
own version :)

  *Melody played the whole song:

e|----0---0---0---0---0---0---0---0----0---0---0---0------0----0----0----0--------|
B|--9---9---9---9---7---7---7---7----9---9---9---9---9/10---10---10---10----------|
G|--------------------------------------------------------------------------------|
D|--------------------------------------------------------------------------------|
A|--------------------------------------------------------------------------------|
E|--------------------------------------------------------------------------------|

    E               Bsus4            E*             Asus2 
e|--0---------------0----------------0---------------0----------------------------|
B|--9---------------7----------------9--------------10----------------------------|
G|--9---------------9----------------9---------------9----------------------------| 
D|--9---------------9----------------9---------------7----------------------------|
A|--7-----------------------------------------------------------------------------|
E|----------------------------*strum like melody*---------------------------------|

            E                         Bsus4
Take it all in instead of writing it down
                 E*                      Asus2
trying to find a way to get out of this town
                 E                    Bsus4
searching for contact waiting on the last act
             E*                   Asus2
binding my time because I'll never be back
            E                        Bsus4
hoping to find that I'm one of a kind
            E*                       Asus2
willing to settle for some piece of mind
                      E                    Bsus4
I'm going to sail to China or move to Carolina
                  E*                         Asus2
find myself some peace and take myself some time to fall
          E                          Bsus4
and I'll fall and I'll fall for the first pretty girl
          E*                         Asus2
and I'll give her my heart and I'll make her my world


Repeat this part 7x - first time a bit lower:   

E                               Bsus4
[and we'll dance and dance and dance] 
Добавлено: 24.09.2014
Другие материалы по этой песне:
  • Аккорды и текст

Страница создана 14.09.2013
http://primanota.ru/ashtar-command/china-chords.htm
Привет, Гость.
Предлагаем пройти революционный курс по гитаре.
Подарок от PrimaNota.Ru, забирай!