PrimaNota.ru - самый крупный в мире бесплатный архив песенных текстов, аккордов, табулатур и нот


Ash - Return Of White Rabbit - таба, видео

Регистрация Запомнить меня
Войти через:  Facebook Google Twitter Vk Yandex Mail.ru

Ash - Return Of White Rabbit - таба, видео

Печатать
Просмотров: 135
Intro (on bass):
Repeat as necessary this bit
------------------------------------|
------------------------------------|
--------8--------5-------8-------5--|
5-0-5-0--8-0-5-0--5-0-5-0-8-0-5-0-5-|

Guitar:

-----------------------------------------------|
-------------------------5-5-5-5---------------|
-------------------------6-6-6-6---------------|
-------------------------7-7-7-7---------------|
-------------------------7-7-7-7---------------|
-5-5-5-5-5-5-5-5-5-5-5-5-----------------------|

Small little solo bit:
----------12-15-15-----------------------------|
-10-13-13--------------------------------------|
-----------------------------------------------|
-----------------------------------------------|x4
-----------------------------------------------|
-----------------------------------------------|

Chord sequence (just before verse and chorus and solo): Strum accordingly, I can't be 
to write out every strum
-----------------------------------------------|
-----------------------------------------------|
---------9-12-12-------------------------------|
-7-10-10-9-12-12-------------------------------|
-7-10-10-7-10-10-------------------------------|
-5-8--8----------------------------------------|

Then the verse is just the bass line...

Bit after chorus:
"I don't wanna go--"
------------------------------------------------------------------------|
------------------------------------------------------------------------|
----------------------------2-2-2-2-2-2-22-22-2-------------------------|
----------------------------2-2-2-2-2-2-22-22-2-------------------------|
-12-10-7-10-7-5-7-5-3-5-3-2-0-0-0-0-0-0-00-00-0-------------------------|
------------------------------------------------------------------------|

Solo synthy bit:
-5-7-3-0-5-7-3--5-7-3-0-5-7-3-5-------------------|
--------------------------------------------------|
--------------------------------99-77-55-44-------| Then Chorus & End
--------------------------------------------------|
--------------------------------------------------|
--------------------------------------------------|
Work out the structure for yourself -  it's a very straight forward song
Добавлено: 27.02.2012
Другие материалы по этой песне:

Страница создана 27.02.2012
http://primanota.ru/ash/return-of-white-rabbit-chords.htm
Привет, Гость.
Предлагаем пройти революционный курс по гитаре.
Подарок от PrimaNota.Ru, забирай!