PrimaNota.ru - самый крупный в мире бесплатный архив песенных текстов, аккордов, табулатур и нот


As I Lay Dying - I Never Wanted - текст песни, таба, видео

Регистрация Запомнить меня
Войти через:  Facebook Google Twitter Vk Yandex Mail.ru

As I Lay Dying - I Never Wanted - текст песни, таба, видео

Печатать
Просмотров: 158
Anddd another one off the new album
This one's a lot slower and more vocally-oriented, but still just as good as the rest
plz rate/comment
and email me if you want the powertab
ewlord-1492@hotmail.com
make sure you tell me which tab you want




 

 

Gtr I (C G C F A D) - 'clean'
Gtr II (C G C F A D) - 'clean'
Gtr III (C G C F A D) - 'distortion'
Gtr IV (C G C F A D) - 'distortion'
Gtr V (C G C F A D) - 'distortion'


    Q=152
    Gtr I
    E E E E E E E E   E E E E E E E E   E E E E E E E E   E E E E E E E E
||------------------|-----------------|-----------------|-------------------||
||o-----------------|-----------------|-----------------|------------------o||
||------------------|-----------------|-----------------|-------------------||
||------------------|-----------------|-----------------|---------------3---||
||o-8-8-8-8-8-8-8-8-|-8-8-8-8-8-8-8-8-|-8-8-8-8-8-8-8-8-|-8-8-8-8-8-8-8-3--o||
||--0-0-0-0-0-0-0-0-|-0-0-0-0-0-0-0-0-|-8-8-8-7-7-7-8-8-|-8-7-7-7-5-7-7-3---||
|
|   Gtr II
|   W                 W                 W                 W
||------------------|-----------------|-----------------|-------------------||
||o-----------------|-----------------|-----------------|------------------o||
||------------------|-----------------|-----------------|-------------------||
||------------------|-----------------|-----------------|-------------------||
||o-----------------|-----------------|-----------------|------------------o||
||------------------|-----------------|-----------------|-------------------||


  E E E E E  E E E    E  E E  E E E E E
|------------------|--------------------|
|------------------|--------------------|
|------------------|--------------------|
|------------------|--------------------|
|-8-8-8-8-8--8-8-8-|--8--8-8--8-8-8-8-8-|
|-0-0-0-0-0--0-0-0-|--0--0-0--0-0-0-0-0-|
|
| H       Q.     E   +Q    H.
|------------------|--------------------|
|----------------5-|-(5)---6------------|
|---------7--------|--------------------|
|------------------|--------------------|
|------------------|--------------------|
|------------------|--------------------|


   E  E E E E E E E    E  E E E E E E E
|-------------------|-------------------|
|-------------------|-------------------|
|-------------------|-------------------|
|-------------------|-----------------3-|
|--8--8-8-8-8-8-8-8-|--8--8-8-8-8-8-8-3-|
|--8--8-8-7-7-7-8-8-|--8--7-7-7-5-7-7-3-|
|
| +W                  +W
|-------------------|-------------------|
|-(6)---------------|-(6)---------------|
|-------------------|-------------------|
|-------------------|-------------------|
|-------------------|-------------------|
|-------------------|-------------------|


  E E E E E  E E E    E  E E  E E E E E
|------------------|--------------------|
|------------------|--------------------|
|------------------|--------------------|
|------------------|--------------------|
|-8-8-8-8-8--8-8-8-|--8--8-8--8-8-8-8-8-|
|-0-0-0-0-0--0-0-0-|--0--0-0--0-0-0-0-0-|
|
| H       Q.     E   +Q    H.
|------------------|--------------------|
|----------------5-|-(5)---6------------|
|---------7--------|--------------------|
|------------------|--------------------|
|------------------|--------------------|
|------------------|--------------------|


                                Gtr III
   E  E E E E E E E    E  E E E E E E E
|-------------------|-------------------|
|-------------------|-------------------|
|-------------------|-------------------|
|-------------------|-------------------|
|--8--8-8-8-8-8-8-8-|--8--8-8-8-5-7-7-3-|
|--8--8-8-7-7-7-8-8-|--8--7-7-7-5-7-7-3-|
|
|                               Gtr IV
| +W                  +H        E E E E
|-------------------|-------------------|
|-(6)---------------|-(6)---------------|
|-------------------|-------------------|
|-------------------|-------------------|
|-------------------|-----------5-7-7-3-|
|-------------------|-----------5-7-7-3-|


    Gtr III
    E E E E E E E E   E E E E E E E E   E E E E E E E E   E E E E E E E E
||------------------|-----------------|-----------------|------------------|
||o-----------------|-----------------|-----------------|------------------|
||------------------|-----------------|-----------------|------------------|
||------------------|-----------------|-----------------|------------------|
||o-0-0-0-0-0-0-0-0-|-0-0-0-0-0-0-0-0-|-0-0-0-0-0-0-0-0-|-0-0-0-0-5-7-7-3--|
||--0-0-0-0-0-0-0-0-|-0-0-0-0-0-0-0-0-|-0-0-0-0-0-0-0-0-|-0-0-0-0-5-7-7-3--|
|
|   Gtr IV
|   E E E E E E E E   E E E E E E E E   E E E E E E E E   E E E E E E E E
||------------------|-----------------|-----------------|------------------|
||o-----------------|-----------------|-----------------|------------------|
||------------------|-----------------|-----------------|------------------|
||------------------|-----------------|-----------------|------------------|
||o-0-0-0-0-0-0-0-0-|-0-0-0-0-0-0-0-0-|-0-0-0-0-0-0-0-0-|-0-0-0-0-5-7-7-3--|
||--0-0-0-0-0-0-0-0-|-0-0-0-0-0-0-0-0-|-0-0-0-0-0-0-0-0-|-0-0-0-0-5-7-7-3--|


  E E E E E E E E   E E E E E E E E   E E E E E E E E   E E E E E E E E
|-----------------|-----------------|-----------------|------------------||
|-----------------|-----------------|-----------------|-----------------o||
|-----------------|-----------------|-----------------|------------------||
|-----------------|-----------------|-----------------|------------------||
|-0-0-0-0-0-0-0-0-|-0-0-0-0-0-0-0-0-|-8-8-8-8-8-8-8-8-|-8-8-8-8-5-7-7-3-o||
|-0-0-0-0-0-0-0-0-|-0-0-0-0-0-0-0-0-|-8-8-8-7-7-7-8-8-|-8-7-7-7-5-7-7-3--||
|
| E E E E E E E E   E E E E E E E E   E E E E E E E E   E E E E E E E E
|-----------------|-----------------|-----------------|------------------||
|-----------------|-----------------|-----------------|-----------------o||
|-----------------|-----------------|-----------------|------------------||
|-----------------|-----------------|-----------------|------------------||
|-0-0-0-0-0-0-0-0-|-0-0-0-0-0-0-0-0-|-8-8-8-8-8-8-8-8-|-8-8-8-8-5-7-7-3-o||
|-0-0-0-0-0-0-0-0-|-0-0-0-0-0-0-0-0-|-8-8-8-7-7-7-8-8-|-8-7-7-7-5-7-7-3--||


  E E E E E E E E   E E E E E E E E
|-----------------|-----------------|
|-----------------|-----------------|
|-----------------|-----------------|
|-----------------|-----------------|
|-0-0-0-0-0-0-0-0-|-0-0-0-0-0-0-0-0-|
|-0-0-0-0-0-0-0-0-|-0-0-0-0-0-0-0-0-|
|
| E E E E E E E E   E E E E E E E E
|-----------------|-----------------|
|-----------------|-----------------|
|-----------------|-----------------|
|-----------------|-----------------|
|-0-0-0-0-0-0-0-0-|-0-0-0-0-0-0-0-0-|
|-0-0-0-0-0-0-0-0-|-0-0-0-0-0-0-0-0-|


   E  E  E  E  E  E  E  E    E  E  E  E E  E  E E
|-------------------------|-----------------------|
|-13-13-13-13-13-13-13-13-|-13-13-13-13-----------|
|-12-12-12-12-12-12-12-12-|-12-12-12-12-----------|
|--0--0--0--0--0--0--0--0-|--0--0--0--0-----------|
|--0--0--0--0--0--0--0--0-|--0--0--0--0-8-10-10-7-|
|--0--0--0--0--0--0--0--0-|--0--0--0--0-8-10-10-7-|
|
|  E  E  E  E  E  E  E  E    E  E  E  E E  E  E E
|-------------------------|-----------------------|
|-------------------------|-----------------------|
|-------------------------|-----------------------|
|-------------------------|-----------------------|
|--0--0--0--0--0--0--0--0-|--0--0--0--0-8-10-10-7-|
|--0--0--0--0--0--0--0--0-|--0--0--0--0-8-10-10-7-|


  E E E E E E E E   E E E E E E E E   E E E E E E E E   E E E E E E E E
|-----------------|-----------------|-----------------|-----------------|
|-----------------|-----------------|-----------------|-----------------|
|-----------------|-----------------|-----------------|-----------------|
|-----------------|-----------------|-----------------|-----------------|
|-0-0-0-0-0-0-0-0-|-0-0-0-0-0-0-0-0-|-8-8-8-8-8-8-8-8-|-8-8-8-8-5-7-7-3-|
|-0-0-0-0-0-0-0-0-|-0-0-0-0-0-0-0-0-|-8-8-8-7-7-7-8-8-|-8-7-7-7-5-7-7-3-|
|
| E E E E E E E E   E E E E E E E E   E E E E E E E E   E E E E E E E E
|-----------------|-----------------|-----------------|-----------------|
|-----------------|-----------------|-----------------|-----------------|
|-----------------|-----------------|-----------------|-----------------|
|-----------------|-----------------|-----------------|-----------------|
|-0-0-0-0-0-0-0-0-|-0-0-0-0-0-0-0-0-|-8-8-8-8-8-8-8-8-|-8-8-8-8-5-7-7-3-|
|-0-0-0-0-0-0-0-0-|-0-0-0-0-0-0-0-0-|-8-8-8-7-7-7-8-8-|-8-7-7-7-5-7-7-3-|


    PM----------------------------------------------------|
    E E E E E E E E   E E E E E E E E   E E E E E E E E   E E E E E E E E
||------------------|-----------------|-----------------|-------------------||
||o-----------------|-----------------|-----------------|-----6-6-6-6-6-6--o||
||------------------|-----------------|-----------------|-----7-7-7-7-7-7---||
||------------------|-----------------|-----------------|---0-0-0-0-0-0-0---||
||o-0-0-0-0-0-0-0-0-|-0-0-0-0-0-0-0-0-|-0-0-0-0-0-0-0-0-|-0----------------o||
||--0-0-0-0-0-0-0-0-|-0-0-0-0-0-0-0-0-|-0-0-0-0-0-0-0-0-|-0-----------------||
|
|   PM----------------------------------------------------|
|   E E E E E E E E   E E E E E E E E   E E E E E E E E   E E E E E E E E
||------------------|-----------------|-----------------|-------------------||
||o-----------------|-----------------|-----------------|-----6-6-6-6-6-6--o||
||------------------|-----------------|-----------------|-----7-7-7-7-7-7---||
||------------------|-----------------|-----------------|---0-0-0-0-0-0-0---||
||o-0-0-0-0-0-0-0-0-|-0-0-0-0-0-0-0-0-|-0-0-0-0-0-0-0-0-|-0----------------o||
||--0-0-0-0-0-0-0-0-|-0-0-0-0-0-0-0-0-|-0-0-0-0-0-0-0-0-|-0-----------------||


  PM----|   PM------------|   PM------------|   PM------|
  E E E E E E E E   E E E E E E E E   E E E E E E E E   E E E E E E E E
|-----------------|-----------------|-----------------|-----------------|
|-----------------|-----------------|-----------------|-----6-6-6-6-6-6-|
|-----------------|-----------------|-----------------|-----7-7-7-7-7-7-|
|-----------------|-----------------|-----------------|---0-0-0-0-0-0-0-|
|-0-0-0-0---0-0-0-|-0-0-0-0---0-0-0-|-0-0-0-0---0-0-0-|-0---------------|
|-0-0-0-0---0-0-0-|-0-0-0-0---0-0-0-|-0-0-0-0---0-0-0-|-0---------------|
|
| PM----|   PM------------|   PM------------|   PM------|
| E E E E E E E E   E E E E E E E E   E E E E E E E E   E E E E E E E E
|-----------------|-----------------|-----------------|-----------------|
|-----------------|-----------------|-----------------|-----6-6-6-6-6-6-|
|-----------------|-----------------|-----------------|-----7-7-7-7-7-7-|
|-----------------|-----------------|-----------------|---0-0-0-0-0-0-0-|
|-0-0-0-0---0-0-0-|-0-0-0-0---0-0-0-|-0-0-0-0---0-0-0-|-0---------------|
|-0-0-0-0---0-0-0-|-0-0-0-0---0-0-0-|-0-0-0-0---0-0-0-|-0---------------|


  PM----|   PM----------------|   PM---------
  E E E E E E S S S S   E E E E E E S S S S
|---------------------|---------------------|
|---------------------|---------------------|
|---------------------|---------------------|
|---------------------|---------------------|
|-0-0-0-0---0-0-0-0-0-|-0-0-0-0---0-0-0-0-0-|
|-0-0-0-0---0-0-0-0-0-|-0-0-0-0---0-0-0-0-0-|
|
| PM----|   PM----------------|   PM---------
| E E E E E E S S S S   E E E E E E S S S S
|---------------------|---------------------|
|---------------------|---------------------|
|---------------------|---------------------|
|---------------------|---------------------|
|-0-0-0-0---0-0-0-0-0-|-0-0-0-0---0-0-0-0-0-|
|-0-0-0-0---0-0-0-0-0-|-0-0-0-0---0-0-0-0-0-|


 -------|   PM----------|
  E E E E E E S S S S   E E E E E E E E
|---------------------|-----------------|
|---------------------|-----6-6-6-6-6-6-|
|---------------------|-----7-7-7-7-7-7-|
|---------------------|---0-0-0-0-0-0-0-|
|-0-0-0-0---0-0-0-0-0-|-0---------------|
|-0-0-0-0---0-0-0-0-0-|-0---------------|
|
|-------|   PM----------|
| E E E E E E S S S S   E E E E E E E E
|---------------------|-----------------|
|---------------------|-----6-6-6-6-6-6-|
|---------------------|-----7-7-7-7-7-7-|
|---------------------|---0-0-0-0-0-0-0-|
|-0-0-0-0---0-0-0-0-0-|-0---------------|
|-0-0-0-0---0-0-0-0-0-|-0---------------|


  PM----|   PM----------------|   PM---------
  E E E E E E S S S S   E E E E E E S S S S
|---------------------|---------------------|
|---------------------|---------------------|
|---------------------|---------------------|
|---------------------|---------------------|
|-0-0-0-0---0-0-0-0-0-|-0-0-0-0---0-0-0-0-0-|
|-0-0-0-0---0-0-0-0-0-|-0-0-0-0---0-0-0-0-0-|
|
| PM----|   PM----------------|   PM---------
| E E E E E E S S S S   E E E E E E S S S S
|---------------------|---------------------|
|---------------------|---------------------|
|---------------------|---------------------|
|---------------------|---------------------|
|-0-0-0-0---0-0-0-0-0-|-0-0-0-0---0-0-0-0-0-|
|-0-0-0-0---0-0-0-0-0-|-0-0-0-0---0-0-0-0-0-|


 -------|   PM----------------|
  E E E E E E S S S S   E E E E E  E  E   E
|---------------------|------------------------|
|---------------------|------------------------|
|---------------------|-----------12-10---7----|
|---------------------|------------------------|
|-0-0-0-0---0-0-0-0-0-|-0-0-0-0---10--8---5----|
|-0-0-0-0---0-0-0-0-0-|-0-0-0-0----------------|
|
|-------|   PM----------------|    PM-------|
| E E E E E E S S S S   E E E E E  E  S S S S
|---------------------|------------------------|
|---------------------|------------------------|
|---------------------|------------------------|
|---------------------|------------------------|
|-0-0-0-0---0-0-0-0-0-|-0-0-0-0----0--0-0-0-0--|
|-0-0-0-0---0-0-0-0-0-|-0-0-0-0----0--0-0-0-0--|


        PM|   PM----------------|   PM---------
   E  E E E E E S S S S   E E E E E E S S S S
|-----------------------|---------------------|
|-----------------------|---------------------|
|-14-10-----------------|---------------------|
|-----------------------|---------------------|
|-12--8-0-0---0-0-0-0-0-|-0-0-0-0---0-0-0-0-0-|
|-------0-0---0-0-0-0-0-|-0-0-0-0---0-0-0-0-0-|
|
|  PM-----|   PM----------------|   PM---------
|  E  E E E E E S S S S   E E E E E E S S S S
|-----------------------|---------------------|
|-----------------------|---------------------|
|-----------------------|---------------------|
|-----------------------|---------------------|
|--0--0-0-0---0-0-0-0-0-|-0-0-0-0---0-0-0-0-0-|
|--0--0-0-0---0-0-0-0-0-|-0-0-0-0---0-0-0-0-0-|


 -------|   PM----------------|
  E E E E E E S S S S   E E E E E E E E
|---------------------|--------------------|
|---------------------|--------------------|
|---------------------|--------------------|
|---------------------|--------------------|
|-0-0-0-0---0-0-0-0-0-|-0-0-0-0---5-3-8----|
|-0-0-0-0---0-0-0-0-0-|-0-0-0-0---5-3-8----|
|
|-------|   PM----------------|
| E E E E E E S S S S   E E E E H
|---------------------|--------------------|
|---------------------|--------------------|
|---------------------|--------------------|
|---------------------|--------------------|
|-0-0-0-0---0-0-0-0-0-|-0-0-0-0------------|
|-0-0-0-0---0-0-0-0-0-|-0-0-0-0------------|


  E E E E E E E E   E E E E E E E E   E E E E E E E E   E E E E E E E E
|-----------------|-----------------|-----------------|-----------------|
|-----------6-6-6-|-6-6-6-6-6-6-6-6-|-----------------|-----------------|
|-----------7-7-7-|-7-7-7-7-7-7-7-7-|-----------------|-----------------|
|-----------0-0-0-|-0-0-0-0-0-0-0-0-|-----------------|-----------------|
|-7-3-0-0-0-0-0-0-|-0-0-0-0-0-0-0-0-|-8-8-8-8-8-8-8-8-|-8-8-8-8-5-7-7-3-|
|-7-3-0-0-0-0-0-0-|-0-0-0-0-0-0-0-0-|-8-8-8-7-7-7-8-8-|-8-7-7-7-5-7-7-3-|
|
| Q   E E E E E E   E E E E E E E E   E E E E E E E E   E E E E E E E E
|-----------------|-----------------|-----------------|-----------------|
|-----------------|-----------------|-----------------|-----------------|
|-----------------|-----------------|-----------------|-----------------|
|-----------------|-----------------|-----------------|-----------------|
|-----0-0-0-0-0-0-|-0-0-0-0-0-0-0-0-|-8-8-8-8-8-8-8-8-|-8-8-8-8-5-7-7-3-|
|-----0-0-0-0-0-0-|-0-0-0-0-0-0-0-0-|-8-8-8-7-7-7-8-8-|-8-7-7-7-5-7-7-3-|


  E E E E E E E E   E E E E E E E E   E E E E E E E E   E E E E E E E E
|-----------------|-----------------|-----------------|-----------------|
|-----------------|-----------------|-----------------|-----------------|
|-----------------|-----------------|-----------------|-----------------|
|-----------------|-----------------|-----------------|-----------------|
|-0-0-0-0-0-0-0-0-|-0-0-0-0-5-7-7-3-|-0-0-0-0-0-0-0-0-|-0-0-0-0-0-0-0-0-|
|-0-0-0-0-0-0-0-0-|-0-0-0-0-5-7-7-3-|-0-0-0-0-0-0-0-0-|-0-0-0-0-0-0-0-0-|
|
| E E E E E E E E   E E E E E E E E   E E E E E E E E   E E E E E E E E
|-----------------|-----------------|-----------------|-----------------|
|-----------------|-----------------|-----------------|-----------------|
|-----------------|-----------------|-----------------|-----------------|
|-----------------|-----------------|-----------------|-----------------|
|-0-0-0-0-0-0-0-0-|-0-0-0-0-5-7-7-3-|-0-0-0-0-0-0-0-0-|-0-0-0-0-0-0-0-0-|
|-0-0-0-0-0-0-0-0-|-0-0-0-0-5-7-7-3-|-0-0-0-0-0-0-0-0-|-0-0-0-0-0-0-0-0-|


  E E E E E E E E   E E E E E E E E   E E E E E E E E    E  E  E  E E  E  E E
|-----------------|-----------------|-----------------|-----------------------|
|-----------------|-----------------|-----------------|-13-13-13-13-----------|
|-----------------|-----------------|-----------------|-12-12-12-12-----------|
|-----------------|-----------------|-----------------|--0--0--0--0-----------|
|-8-8-8-8-8-8-8-8-|-8-8-8-8-5-7-7-3-|-0-0-0-0-0-0-0-0-|--0--0--0--0-8-10-10-7-|
|-8-8-8-7-7-7-8-8-|-8-7-7-7-5-7-7-3-|-0-0-0-0-0-0-0-0-|--0--0--0--0-8-10-10-7-|
|
| E E E E E E E E   E E E E E E E E   E E E E E E E E    E  E  E  E E  E  E E
|-----------------|-----------------|-----------------|-----------------------|
|-----------------|-----------------|-----------------|-----------------------|
|-----------------|-----------------|-----------------|-----------------------|
|-----------------|-----------------|-----------------|-----------------------|
|-8-8-8-8-8-8-8-8-|-8-8-8-8-5-7-7-3-|-0-0-0-0-0-0-0-0-|--0--0--0--0-8-10-10-7-|
|-8-8-8-7-7-7-8-8-|-8-7-7-7-5-7-7-3-|-0-0-0-0-0-0-0-0-|--0--0--0--0-8-10-10-7-|


  E E E E E E E E   E E E E E E E E   E E E E E E E E   E E E E E E E E
|-----------------|-----------------|-----------------|-----------------|
|-----------------|-----------------|-----------------|-----------------|
|-----------------|-----------------|-----------------|-----------------|
|-----------------|-----------------|-----------------|-----------------|
|-0-0-0-0-0-0-0-0-|-0-0-0-0-5-7-7-3-|-8-8-8-8-8-8-8-8-|-8-8-8-8-5-7-7-3-|
|-0-0-0-0-0-0-0-0-|-0-0-0-0-5-7-7-3-|-8-8-8-7-7-7-8-8-|-8-7-7-7-5-7-7-3-|
|
| E E E E E E E E   E E E E E E E E   E E E E E E E E   E E E E E E E E
|-----------------|-----------------|-----------------|-----------------|
|-----------------|-----------------|-----------------|-----------------|
|-----------------|-----------------|-----------------|-----------------|
|-----------------|-----------------|-----------------|-----------------|
|-0-0-0-0-0-0-0-0-|-0-0-0-0-5-7-7-3-|-8-8-8-8-8-8-8-8-|-8-8-8-8-5-7-7-3-|
|-0-0-0-0-0-0-0-0-|-0-0-0-0-5-7-7-3-|-8-8-8-7-7-7-8-8-|-8-7-7-7-5-7-7-3-|


  E E E E Q  E E   E E Q  E E E E   Q  E E Q  E E   E E Q  E E E E
|----------------|----------------|---------------|----------------|
|----------------|----------------|---------------|----------------|
|-------0--------|----------------|------0--------|----------------|
|---------3------|---3-2--------0-|--------3------|---3-2--------0-|
|-0-0-0------0-0-|-0------0-0-3---|-0--0------0-0-|-0------0-0-3---|
|-0-0-0------0-0-|-0------0-0-----|-0--0------0-0-|-0------0-0-----|
|
| E E E E Q  E E   E E Q  E E E E   Q  E E Q  E E   E E Q  E E E E
|----------------|----------------|---------------|----------------|
|----------------|----------------|---------------|----------------|
|-------0--------|----------------|------0--------|----------------|
|---------3------|---3-2--------0-|--------3------|---3-2------2-3-|
|-0-0-0------0-0-|-0------0-0-3---|-0--0------0-0-|-0------0-0-----|
|-0-0-0------0-0-|-0------0-0-----|-0--0------0-0-|-0------0-0-----|


  Q  E E Q  E E   E E Q  E E E E   Q  E E Q  E E   E E E E E E E E
|---------------|----------------|---------------|-----------------|
|---------------|----------------|---------------|-----------------|
|------0--------|----------------|------0--------|-----------------|
|--------3------|---3-2--------0-|--------3------|-3-3-3-3-3-3-3-3-|
|-0--0------0-0-|-0------0-0-3---|-0--0------0-0-|-1-1-1-1-1-1-1-1-|
|-0--0------0-0-|-0------0-0-----|-0--0------0-0-|-1-1-1-1-1-1-1-1-|
|
| Q  E E Q  E E   E E Q  E E E E   Q  E E Q  E E   E E E E E E E E
|---------------|----------------|---------------|-----------------|
|---------------|----------------|---------------|-----------------|
|------0--------|----------------|------0--------|-----------------|
|--------3------|---3-2--------0-|--------3------|-3-3-3-3-3-3-3-3-|
|-0--0------0-0-|-0------0-0-3---|-0--0------0-0-|-1-1-1-1-1-1-1-1-|
|-0--0------0-0-|-0------0-0-----|-0--0------0-0-|-1-1-1-1-1-1-1-1-|


  Q  E E Q  E E   E E Q  E E E E   Q  E E Q  E E   E E Q  E E E E
|---------------|----------------|---------------|----------------|
|---------------|----------------|---------------|----------------|
|------0--------|----------------|------0--------|----------------|
|--------3------|---3-2--------0-|--------3------|---3-2--------0-|
|-0--0------0-0-|-0------0-0-3---|-0--0------0-0-|-0------0-0-3---|
|-0--0------0-0-|-0------0-0-----|-0--0------0-0-|-0------0-0-----|
|
| Q  E E Q  E E   E E Q  E E Q     Q  E E Q  E E   E E Q  E E E E
|---------------|----------------|---------------|----------------|
|---------------|----------------|---------------|----------------|
|---------------|----------------|---------------|----------------|
|---------------|----------------|---------------|------------2-3-|
|-0--0------0-0-|-0------0-0-----|-0--0------0-0-|-0------0-0-----|
|-0--0------0-0-|-0------0-0-----|-0--0------0-0-|-0------0-0-----|


  Q  E E Q  E E   E E Q  E E E E   Q  E E Q  E E   E E E E E E E E
|---------------|----------------|---------------|-----------------|
|---------------|----------------|---------------|-----------------|
|------0--------|----------------|------0--------|-----------------|
|--------3------|---3-2--------0-|--------3------|-3-3-3-3-3-3-3-3-|
|-0--0------0-0-|-0------0-0-3---|-0--0------0-0-|-1-1-1-1-1-1-1-1-|
|-0--0------0-0-|-0------0-0-----|-0--0------0-0-|-1-1-1-1-1-1-1-1-|
|
| Q  E E Q  E E   E E Q  E E Q     Q  E E Q  E E   E E E E E E E E
|---------------|----------------|---------------|-----------------|
|---------------|----------------|---------------|-----------------|
|---------------|----------------|---------------|-----------------|
|---------------|----------------|---------------|-3-3-3-3-3-3-3-3-|
|-0--0------0-0-|-0------0-0-----|-0--0------0-0-|-1-1-1-1-1-1-1-1-|
|-0--0------0-0-|-0------0-0-----|-0--0------0-0-|-1-1-1-1-1-1-1-1-|


   Q   E  E  E  E  E  E    E  E  E  E  E  E  E  E
|-----------------------|----------------10----10-|
|--------------------10-|----10----10-13----13----|
|--------10----10-12----|-12----12----------------|
|-12--12----12----------|-------------------------|
|-----------------------|-------------------------|
|-----------------------|-------------------------|
|
|  Q   E  E  Q     E  E    E  E  Q     E  E  E  E
|-----------------------|-------------------------|
|-----------------------|-------------------------|
|---------0-------------|-------------------------|
|------------3----------|-----3--2--------------0-|
|--0---0-----------0--0-|--0-----------0--0--3----|
|--0---0-----------0--0-|--0-----------0--0-------|


   E  E  E  E  E  E  E  E    E  E  E  E  E  E  E  E
|-------------------------|-------------------------|
|-10-------10-------10----|----10-------10----------|
|----10-------10-------10-|-------10-------10-------|
|-------12-------12-------|-12-------12-------10-12-|
|-------------------------|-------------------------|
|-------------------------|-------------------------|
|
|  Q     E  E  Q     E  E    E  E  Q     E  E  E  E
|-------------------------|-------------------------|
|-------------------------|-------------------------|
|-----------0-------------|-------------------------|
|--------------3----------|-----3--2--------------0-|
|--0-----0-----------0--0-|--0-----------0--0--3----|
|--0-----0-----------0--0-|--0-----------0--0-------|


   Q   E  E  E  E  E  E    E  E  E  E  E  E  E  E
|-----------------------|----------------10----10-|
|--------------------10-|----10----10-13----13----|
|--------10----10-12----|-12----12----------------|
|-12--12----12----------|-------------------------|
|-----------------------|-------------------------|
|-----------------------|-------------------------|
|
|  Q   E  E  Q     E  E    E  E  Q     E  E  E  E
|-----------------------|-------------------------|
|-----------------------|-------------------------|
|---------0-------------|-------------------------|
|------------3----------|-----3--2--------------0-|
|--0---0-----------0--0-|--0-----------0--0--3----|
|--0---0-----------0--0-|--0-----------0--0-------|


   E  E  E  E  E  E  E  E   E E E E E E E E
|-10-10-10-10-10-10-10-10-|-----------------|
|-------------------------|-----------------|
|-------------------------|-----------------|
|-------------------------|-3-3-3-3-3-3-3-3-|
|-------------------------|-1-1-1-1-1-1-1-1-|
|-------------------------|-1-1-1-1-1-1-1-1-|
|
|  Q     E  E  Q     E  E   E E E E E E E E
|-------------------------|-----------------|
|-------------------------|-----------------|
|-----------0-------------|-----------------|
|--------------3----------|-3-3-3-3-3-3-3-3-|
|--0-----0-----------0--0-|-1-1-1-1-1-1-1-1-|
|--0-----0-----------0--0-|-1-1-1-1-1-1-1-1-|


  E E E E E E E E
|--------------------|
|--------------------|
|--------------------|
|-5-5-5-5-5-5-5-5----|
|-3-3-3-3-3-3-3-3----|
|-3-3-3-3-3-3-3-3----|
|
| E E E E E E E E
|--------------------|
|--------------------|
|--------------------|
|-5-5-5-5-5-5-5-5----|
|-3-3-3-3-3-3-3-3----|
|-3-3-3-3-3-3-3-3----|


  Gtr I
   W           W          W          +H.      +E  E
|-----------|-----------|----------|----------------|
|-----------|-----------|----------|----------------|
|-----------|-----------|----------|----------------|
|-/5--------|-/7--------|-5--------|-(5)------(5)-5-|
|-----------|-----------|----------|----------------|
|-----------|-----------|----------|----------------|
|
| Gtr II
|  W           W          W           W
|-----------|-----------|----------|----------------|
|-----------|-----------|----------|----------------|
|-----------|-----------|----------|----------------|
|-----------|-----------|----------|----------------|
|-----------|-----------|----------|----------------|
|-----------|-----------|----------|----------------|


                                                      Gtr III
  E  E Q  +H       E E H    E E    W           +H       H
|----------------|--------------|-----------|-----------------|
|----------------|--------------|-----------|-----------------|
|----------------|----------7---|-----------|-----------------|
|-8h10p8--(8)----|-7h8p7------8-|-----------|-----------------|
|----------------|--------------|-10--------|-(10)----/12\----|
|----------------|--------------|-----------|---------/12\----|
|
|                                                     Gtr IV
| W                W               W            H       H
|----------------|--------------|-----------|-----------------|
|----------------|--------------|-----------|-----------------|
|----------------|--------------|-----------|-----------------|
|----------------|--------------|-----------|-----------------|
|----------------|--------------|-----------|---------/12\----|
|----------------|--------------|-----------|---------/12\----|


     E  E  E  E  E  E  E  E    E  E  E  E  E  E  E  E
||--------------------------|-------------------------|
||o-------------------------|-------------------------|
||--------------------------|-------------------------|
||--------------------------|-------------------------|
||o--5--5--5--5--5--5--5--5-|--5--5--5--5--5--5--5--5-|
||---5--5--5--5--5--5--5--5-|--5--5--5--5--5--5--5--5-|
|
|    E  E  E  E  E  E  E  E    E  E  E  E  E  E  E  E
||--------------------------|-------------------------|
||o-------------------------|-------------------------|
||--12-12-12-12-12-12-12-12-|-12-12-12-12-12-12-12-12-|
||--------------------------|-------------------------|
||o-10-10-10-10-10-10-10-10-|-10-10-10-10-10-10-10-10-|
||--------------------------|-------------------------|


   E  E  E  E  E  E  E  E    E  E  E  E  E  E  E  E
|-------------------------|--------------------------|
|-------------------------|--------------------------|
|-------------------------|--------------------------|
|-------------------------|--------------------------|
|--3--3--3--3--3--3--3--3-|--3--3--3--3--3--3--3--3--|
|--3--3--3--3--3--3--3--3-|--3--3--3--3--3--3--3--3--|
|
|  E  E  E  E  E  E  E  E    E  E  E  E  E  E  E  E
|-------------------------|--------------------------|
|-------------------------|--------------------------|
|-14-14-14-14-14-14-14-14-|-14-14-14-14-14-14-14-14--|
|-------------------------|--------------------------|
|-12-12-12-12-12-12-12-12-|-12-12-12-12-12-12-12-12--|
|-------------------------|--------------------------|


   E  E  E  E  E  E  E  E    E  E  E  E  E  E  E  E
|-------------------------|-------------------------|
|-------------------------|-------------------------|
|-------------------------|-------------------------|
|-------------------------|-------------------------|
|--1--1--1--1--1--1--1--1-|--1--1--1--1--1--1--1--1-|
|--1--1--1--1--1--1--1--1-|--1--1--1--1--1--1--1--1-|
|
|  E  E  E  E  E  E  E  E    E  E  E  E  E  E  E  E
|-------------------------|-------------------------|
|-------------------------|-------------------------|
|-10-10-10-10-10-10-10-10-|-10-10-10-10-10-10-10-10-|
|-------------------------|-------------------------|
|--8--8--8--8--8--8--8--8-|--8--8--8--8--8--8--8--8-|
|-------------------------|-------------------------|


  E E E E E E E E   E E E E E E E E
|-----------------|------------------||
|-----------------|-----------------o||
|-----------------|------------------||
|-----------------|------------------||
|-1-1-1-1-1-1-1-1-|-3-3-3-3-3-3-3-3-o||
|-1-1-1-1-1-1-1-1-|-3-3-3-3-3-3-3-3--||
|
| E E E E E E E E   E E E E E E E E
|-----------------|------------------||
|-----------------|-----------------o||
|-8-8-8-8-8-8-8-8-|-7-7-7-7-7-7-7-7--||
|-----------------|------------------||
|-6-6-6-6-6-6-6-6-|-5-5-5-5-5-5-5-5-o||
|-----------------|------------------||


     E  E  E  E  E  E  E  E    E  E  E  E  E  E  E  E
||--------------------------|-------------------------|
||o-------------------------|-------------------------|
||--------------------------|-------------------------|
||--------------------------|-------------------------|
||o--5--5--5--5--5--5--5--5-|--5--5--5--5--5--5--5--5-|
||---5--5--5--5--5--5--5--5-|--5--5--5--5--5--5--5--5-|
|
|    E  E  E  E  E  E  E  E    E  E  E  E  E  E  E  E
||--------------------------|-------------------------|
||o-------------------------|-------------------------|
||--12-12-12-12-12-12-12-12-|-12-12-12-12-12-12-12-12-|
||--------------------------|-------------------------|
||o-10-10-10-10-10-10-10-10-|-10-10-10-10-10-10-10-10-|
||--------------------------|-------------------------|
|
|   Gtr V
|    TP    TP    TP    TP      TP    TP    TP    TP
|    Q     Q     Q     Q       Q     Q     Q     Q
||--------------------------|-------------------------|
||o-------------------------|-------------------------|
||---------------------7----|--8-----7----------------|
||---5-----7-----8----------|--------------8-----7----|
||o-------------------------|-------------------------|
||--------------------------|-------------------------|


   E  E  E  E  E  E  E  E    E  E  E  E  E  E  E  E
|-------------------------|------------------------|
|-------------------------|------------------------|
|-------------------------|------------------------|
|-------------------------|------------------------|
|--3--3--3--3--3--3--3--3-|--3--3--3--3--3--3--3--3|
|--3--3--3--3--3--3--3--3-|--3--3--3--3--3--3--3--3|
|
|  E  E  E  E  E  E  E  E    E  E  E  E  E  E  E  E
|-------------------------|------------------------|
|-------------------------|------------------------|
|-14-14-14-14-14-14-14-14-|-14-14-14-14-14-14-14-14|
|-------------------------|------------------------|
|-12-12-12-12-12-12-12-12-|-12-12-12-12-12-12-12-12|
|-------------------------|------------------------|
|
|  TP    TP    TP    TP      TP    TP    TP    TP
|  Q     Q     Q     Q       Q     Q     Q     Q
|-------------------------|------------------------|
|-------------------------|------------------------|
|--------------------7----|--8-----7---------------|
|--5-----7-----8----------|--------------8-----7---|
|-------------------------|------------------------|
|-------------------------|------------------------|


   E  E  E  E  E  E  E  E    E  E  E  E  E  E  E  E
|-------------------------|-------------------------|
|-------------------------|-------------------------|
|-------------------------|-------------------------|
|-------------------------|-------------------------|
|--1--1--1--1--1--1--1--1-|--1--1--1--1--1--1--1--1-|
|--1--1--1--1--1--1--1--1-|--1--1--1--1--1--1--1--1-|
|
|  E  E  E  E  E  E  E  E    E  E  E  E  E  E  E  E
|-------------------------|-------------------------|
|-------------------------|-------------------------|
|-10-10-10-10-10-10-10-10-|-10-10-10-10-10-10-10-10-|
|-------------------------|-------------------------|
|--8--8--8--8--8--8--8--8-|--8--8--8--8--8--8--8--8-|
|-------------------------|-------------------------|
|
|  TP    TP    TP    TP      TP    TP    TP    TP
|  Q     Q     Q     Q       Q     Q     Q     Q
|-------------------------|-------------------------|
|-------------------------|-------------------------|
|--------------------7----|--8-----7----------------|
|--5-----7-----8----------|--------------8-----7----|
|-------------------------|-------------------------|
|-------------------------|-------------------------|


  E E E E E E E E   E E E E E E E E
|-----------------|------------------||
|-----------------|-----------------o||
|-----------------|------------------||
|-----------------|------------------||
|-1-1-1-1-1-1-1-1-|-3-3-3-3-3-3-3-3-o||
|-1-1-1-1-1-1-1-1-|-3-3-3-3-3-3-3-3--||
|
| E E E E E E E E   E E E E E E E E
|-----------------|------------------||
|-----------------|-----------------o||
|-8-8-8-8-8-8-8-8-|-7-7-7-7-7-7-7-7--||
|-----------------|------------------||
|-6-6-6-6-6-6-6-6-|-5-5-5-5-5-5-5-5-o||
|-----------------|------------------||
|
| TP  TP  TP  TP    TP  TP  TP  TP
| Q   Q   Q   Q     Q   Q   Q   Q
|-----------------|------------------||
|-----------------|-----------------o||
|-------------5---|-7-------5---7----||
|-5---7---8-------|-----5------------||
|-----------------|-----------------o||
|-----------------|------------------||


                                                        Gtr I
   W           +W            +W            +H.      +E  E
|-----------|-------------|-------------|-----------------|
|-----------|-------------|-------------|-----------------|
|-----------|-------------|-------------|-----------------|
|-----------|-------------|-------------|---------------5-|
|--5--------|--(5)--------|--(5)--------|--(5)------(5)---|
|--5--------|--(5)--------|--(5)--------|--(5)------(5)---|
|
|  W           +W            +W            +W
|-----------|-------------|-------------|-----------------|
|-----------|-------------|-------------|-----------------|
|-12--------|-(12)--------|-(12)--------|-(12)------------|
|-----------|-------------|-------------|-----------------|
|-10--------|-(10)--------|-(10)--------|-(10)------------|
|-----------|-------------|-------------|-----------------|


  Gtr I
  E  E Q  +H       E E H.        W          +H.      +E  E
|----------------|-------------|----------|----------------|
|----------------|-------------|----------|----------------|
|----------------|-------------|----------|----------------|
|-8h10p8--(8)----|-7h8p7-------|-5--------|-(5)------(5)-5-|
|----------------|-------------|----------|----------------|
|----------------|-------------|----------|----------------|
|
| Gtr II
| W                W             W          +W
|----------------|-------------|----------|----------------|
|----------------|-------------|----------|----------------|
|----------------|-------------|----------|----------------|
|----------------|-------------|----------|----------------|
|-5--------------|-3-----------|-1--------|-(1)------------|
|-5--------------|-3-----------|-1--------|-(1)------------|


                   H.=H
  E  E Q  +H       E E H    E E    W           +W.
|----------------|--------------|-----------|---------|
|----------------|--------------|-----------|---------|
|----------------|----------7---|-----------|---------|
|-8h10p8--(8)----|-7h8p7------8-|-----------|---------|
|----------------|--------------|-10--------|-(10)----|
|----------------|--------------|-----------|---------|
|
| W                W               W           +W
|----------------|--------------|-----------|---------|
|----------------|--------------|-----------|---------|
|----------------|--------------|-----------|---------|
|----------------|--------------|-----------|---------|
|-5--------------|-3------------|--1--------|--(1)----|
|-5--------------|-3------------|--1--------|--(1)----|




--------------------------------------------------------------------------------


Duration Legend
---------------
W - whole; H - half; Q - quarter; E - 8th; S - 16th; T - 32nd; X - 64th; a - acciaccatura
+ - note tied to previous; . - note dotted; .. - note double dotted
Uncapitalized letters represent notes that are staccato (1/2 duration)
Irregular groupings are notated above the duration line
Duration letters will always appear directly above the note/fret number it represents the
duration for.  Duration letters with no fret number below them represent rests.  Multi-
bar rests are notated in the form Wxn, where n is the number of bars to rest for.  Low
melody durations appear below the staff

Tablature Legend
----------------
 h   - hammer-on
 p   - pull-off
 b   - bend
 pb  - pre-bend
 r   - bend release (if no number after the r, then release immediately)
 /\  - slide into or out of (from/to "nowhere")
 s   - legato slide
 S   - shift slide
 - natural harmonic
[n]  - artificial harmonic
n(n) - tapped harmonic
 ~   - vibrato
 tr  - trill
 T   - tap
 TP  - trem. picking
 PM  - palm muting
\n/  - tremolo bar dip; n = amount to dip
 \n  - tremolo bar down
 n/  - tremolo bar up
/n\  - tremolo bar inverted dip
 =   - hold bend; also acts as connecting device for hammers/pulls
 <> - volume swell (louder/softer)
 x   - on rhythm slash represents muted slash
 o   - on rhythm slash represents single note slash

Misc Legend
-----------
 |  - bar
||  - double bar
||o - repeat start
o|| - repeat end
*|  - double bar (ending)
 :  - bar (freetime)
 $  - Segno
 &  - Coda
Tempo markers -  = BPM(8/16=s8/s16), where s8 = swing 8ths, s16 = swing 16ths



--------------------------------------------------------------------------------


Добавлено: 25.04.2012
Другие материалы по этой песне:

Страница создана 28.02.2012
http://primanota.ru/as-i-lay-dying/i-never-wanted-chords.htm
Привет, Гость.
Предлагаем пройти революционный курс по гитаре.
Подарок от PrimaNota.Ru, забирай!