PrimaNota.ru - самый крупный в мире бесплатный архив песенных текстов, аккордов, табулатур и нот


As I Lay Dying - Morning Waits - текст песни, таба, бас-таба, видео

Регистрация Запомнить меня
Войти через:  Facebook Google Twitter Vk Yandex Mail.ru

As I Lay Dying - Morning Waits - текст песни, таба, бас-таба, видео

Печатать
Просмотров: 362
Morning Waits  Intro -As I Lay Dying
-------------------------------------------------------------------------------
Tabbed by: rockout18
Email: dyingasilay13@yahoo.com

Tuning:C,G,C,F,A,D
Intro x2 Gtr 1 & 2
D|------------------------------------------------------------------------------------------------------|
A|------------------------------------------------------------------------------------------------------|
F|----------------------------------------10-9------------------------------------------------10p12p10--|
C|-0-7-12-0-12-7-0-12-0-7-12-0------10-12\0-7-12-0-12-7-0-12-0-7-12-0--------------14-------------------|
G|------------------------------------------------------------------------------------------------------|
C|------------------------------------------------------------------------------------------------------|

pre-verse
Gtr1
D|-------------------------------------------------------------------------------|
A|-------------------------------------------------------------------------------|
F|-------------------------------------------------------------------------------|
C|------12-----12--12----12--15-14----12-------12-----12-12----12---15-17-15-14--|
G|-----------------------------------------15------------------------------------|
C|-000----000---0---000--0-----------------000----000---0---000--0---------------|

D|----------------------------------------------------------------------------------------|
A|----------------------------------------------------------------------------------------|
F|--------------------------------------------------------7-------7---7------7---5-7-5-4--|
C|------12---12--12----12--15-14----12----------------------------------------------------|
G|---------------------------------------15-----------------------------------------------|
C|-888---888---8---888--8------------------555----555---5---555--5------------------------|

Pre-verse guitar 2
D|-------------------------------------------------------------------------|
A|-------------------------------------------------------------------------|
F|------10----10-10-----10--14-10-9-10----10----10--10----10--14-15-14-12--|
C|-------------------------------------------------------------------------|
G|-------------------------------------------------------------------------|
C|-000--000---0---000--0----------------000--000---0---000--0--------------|

D|----------------------------------------------------------------------------------|
A|----------------------------------------------------6------6---6------6--5-6-5-3--|
F|-----10-----10--10---10---14-10-9-10----------------------------------------------|
C|----------------------------------------------------------------------------------|
G|----------------------------------------------------------------------------------|
C|-888--888---8---888--8-----------------555--555---5---555--5----------------------|
Добавлено: 21.07.2012
Другие материалы по этой песне:

Страница создана 08.03.2012
http://primanota.ru/as-i-lay-dying/morning-waits-chords.htm
Привет, Гость.
Предлагаем пройти революционный курс по гитаре.
Подарок от PrimaNota.Ru, забирай!