PrimaNota.ru - самый крупный в мире бесплатный архив песенных текстов, аккордов, табулатур и нот


As I Lay Dying - Elegy Live - таба, видео

Регистрация Запомнить меня
Войти через:  Facebook Google Twitter Vk Yandex Mail.ru

As I Lay Dying - Elegy Live - таба, видео

Печатать
Просмотров: 174
-------------------------------------------------------------------------------
			     Elegy - As I Lay Dying - live version
-------------------------------------------------------------------------------
Tabbed by: mutt27182
Email: zlonge@yahoo.com

Tuning:	C G C F A D
	Intro
e|---------------------------------------------------------------------------|
B|---------------------------------------------------------------------------|
G|---------------------------------------------------------------------------|
D|-------3-p2-p0--5-p3-p2-p0--00--3-p2-p0--5-p3-p2-p0------------------------|
A|--xx------------------------00---------------------------------------------|
E|--00------------------------00---------------------------------------------|

e|---------------------------------------------------------------------------|
B|---------------------------------------------------------------------------|
G|--5-3-2-3--2-h3-p2-0-------------------------------------------------------|
D|---------------------3-2-3-------------------------------------------------|
A|---------------------------------------------------------------------------|
E|---------------------------------------------------------------------------|

e|---------------------------------------------------------------------------|
B|---------------------------------------------------------------------------|
G|-------------------------------------------------x-x-----------------------|
D|-------3-p2-p0--5-p3-p2-p0--00--3-p2-p0--5-p3-p2-2-3-----------------------|
A|--xx------------------------00---------------------------------------------|
E|--00------------------------00---------------------------------------------|

e|---------------------------------------------------------------------------|
B|---------------------------------------------------------------------------|
G|------2-3-0-2---5-3-2-0-h2-------------------------------------------------|
D|----3---------3------------3-5-2-3-----------------------------------------|
A|--5------------------------------------------------------------------------|
E|---------------------------------------------------------------------------|

e|---------------------------------------------------------------------------|
B|---------------------------------------------------------------------------|
G|---------------------------------------------------------------------------|
D|-------3-p2-p0--5-p3-p2-p0--00--3-p2-p0--5-p3-p2-p0------------------------|
A|--xx------------------------00---------------------------------------------|
E|--00------------------------00---------------------------------------------|

e|---------------------------------------------------------------------------|
B|---------------------------------------------------------------------------|
G|--5-3-2-3--2-h3-p2-0-------------------------------------------------------|
D|---------------------3-2-3-------------------------------------------------|
A|---------------------------------------------------------------------------|
E|---------------------------------------------------------------------------|

e|---------------------------------------------------------------------------|
B|---------------------------------------------------------------------------|
G|-------------------------------------------------x-x-----------------------|
D|-------3-p2-p0--5-p3-p2-p0--00--3-p2-p0--5-p3-p2-2-3-----------------------|
A|--xx------------------------00---------------------------------------------|
E|--00------------------------00---------------------------------------------|


e|---------------------------------------------------------------------------|
B|-------x-x-x-x-------------------------------------------------------------|
G|-----x-2-3-0-2-x-x--x-----x------------------------------------------------|
D|--x--3---------3-0--0--7--0--3---------------------------------------------|
A|--5-----------------0--7--0--3---------------------------------------------|
E|--------------------0--7--0--3---------------------------------------------|

	Verse	Repeat through verse ( 6x )
e|---------------------------------------------------------------------------|
B|---------------------------------------------------------------------------|
G|------2-3-0-2-------------------------2-3-0-2---5-3-2-3-2-0-h2-------------|
D|----3---------3--0------------------3---------3----------------------------|
A|--5--------------0-x-xxx-xxx-xxx--5----------------------------------------|
E|-----------------0-0-000-000-000-------------------------------------------|

	Bridge	Repeat 2x
e|---------------------------------------------------------------------------|
B|---------------------------------------------------------------------------|
G|-----------------------------------------------------5-3-2-----------------|
D|------0-0-h3------5-3-2-3-2-0------0-0-h3------5-3-2-----------------------|
A|--xx---------3-3---------------xx---------1-1------------------------------|
E|--00---------------------------00------------------------------------------|

e|---------------------------------------------------------------------------|
B|---------------------------------------------------------------------------|
G|---------------------------------------------------------------------------|
D|------0-0-h3------5-3-2-3-2-0------0-0-h3--33--555-------------------------|
A|--xx---------3-3---------------xx----------11--222-------------------------|
E|--00---------------------------00------------------------------------------|

	Chorus
e|---------------------------------------------------------------------------|
B|---------------------------------------------------------------------------|
G|---------------------------------------------------------------------------|
D|--888888888888888--000-000000-0000--888888888888888--000-000--10(7x)-------|
A|--888888888888888--000-000000-0000--888888888888888--000-000--10(7x)-------|
E|--888888888888888--000-000000-0000--888888888888888--000-000--10(7x)-------|

e|---------------------------------------------------------------------------|
B|---------------------------------------------------------------------------|
G|--1010101010101010--9999-777-7-9-7-5-77777777------------------------------|
D|---------------------------------------------------------------------------|
A|--8-8-8-8-8-8-8-8---7777-555-5-7-5-3-55555555------------------------------|
E|---------------------------------------------------------------------------|

e|---------------------------------------------------------------------------|
B|---------------------------------------------------------------------------|
G|--9999-1010101010101010-9999-101010-12121212-10-9-10-1010-101010-----------|
D|---------------------------------------------------------------------------|
A|--7777-8-8-8-8-8-8-8-8--7777-8-8-8--10101010-8--7-8--8-8--8-8-8------------|
E|---------------------------------------------------------------------------|

	Verse 2		same as intro
e|---------------------------------------------------------------------------|
B|---------------------------------------------------------------------------|
G|---------------------------------------------------------------------------|
D|-------3-p2-p0--5-p3-p2-p0--00--3-p2-p0--5-p3-p2-p0------------------------|
A|--xx------------------------00---------------------------------------------|
E|--00------------------------00---------------------------------------------|

e|---------------------------------------------------------------------------|
B|---------------------------------------------------------------------------|
G|--5-3-2-3--2-h3-p2-0-------------------------------------------------------|
D|---------------------3-2-3-------------------------------------------------|
A|---------------------------------------------------------------------------|
E|---------------------------------------------------------------------------|

e|---------------------------------------------------------------------------|
B|---------------------------------------------------------------------------|
G|-------------------------------------------------x-x-----------------------|
D|-------3-p2-p0--5-p3-p2-p0--00--3-p2-p0--5-p3-p2-2-3-----------------------|
A|--xx------------------------00---------------------------------------------|
E|--00------------------------00---------------------------------------------|

e|---------------------------------------------------------------------------|
B|---------------------------------------------------------------------------|
G|------2-3-0-2---5-3-2-0-h2-------------------------------------------------|
D|----3---------3------------3-5-2-3-----------------------------------------|
A|--5------------------------------------------------------------------------|
E|---------------------------------------------------------------------------|

e|---------------------------------------------------------------------------|
B|---------------------------------------------------------------------------|
G|---------------------------------------------------------------------------|
D|-------3-p2-p0--5-p3-p2-p0--00--3-p2-p0--5-p3-p2-p0------------------------|
A|--xx------------------------00---------------------------------------------|
E|--00------------------------00---------------------------------------------|

e|---------------------------------------------------------------------------|
B|---------------------------------------------------------------------------|
G|--5-3-2-3--2-h3-p2-0-------------------------------------------------------|
D|---------------------3-2-3-------------------------------------------------|
A|---------------------------------------------------------------------------|
E|---------------------------------------------------------------------------|

e|---------------------------------------------------------------------------|
B|---------------------------------------------------------------------------|
G|-------------------------------------------------x-x-----------------------|
D|-------3-p2-p0--5-p3-p2-p0--00--3-p2-p0--5-p3-p2-2-3-----------------------|
A|--xx------------------------00---------------------------------------------|
E|--00------------------------00---------------------------------------------|


e|---------------------------------------------------------------------------|
B|-------x-x-x-x-------------------------------------------------------------|
G|-----x-2-3-0-2-x-x--x-----x------------------------------------------------|
D|--x--3---------3-0--0--7--0--3---------------------------------------------|
A|--5-----------------0--7--0--3---------------------------------------------|
E|--------------------0--7--0--3---------------------------------------------|

	Breakdown
e|---------------------------------------------------------------------------|
B|---------------------------------------------------------------------------|
G|---------------------------------------------------------------------------|
D|---------------------------------------------------------------------------|
A|--xxx-xx-xxx-xxx-xxxx-xxx-xxx----------------------------------------------|
E|--000-00-000-000-0000-000-000----------------------------------------------|
	    repeat 5x
e|---------------------------------------------------------------------------|
B|---------------------------------------------------------------------------|
G|------2-3-0-2---5-3-2-0-h2-------------------------------------------------|
D|----3---------3------------3-5-2-3-----------------------------------------|
A|--5------------------------------------------------------------------------|
E|---------------------------------------------------------------------------|
	    repeat 4x

e|---------------------------------------------------------------------------|
B|---------------------------------------------------------------------------|
G|-----------------------------------------------------5-3-2-----------------|
D|------0-0-h3------5-3-2-3-2-0------0-0-h3------5-3-2-----------------------|
A|--xx---------3-3---------------xx---------1-1------------------------------|
E|--00---------------------------00------------------------------------------|

e|---------------------------------------------------------------------------|
B|---------------------------------------------------------------------------|
G|---------------------------------------------------------------------------|
D|------0-0-h3------5-3-2-3-2-0------0-0-h3--33--555-------------------------|
A|--xx---------3-3---------------xx----------11--222-------------------------|
E|--00---------------------------00------------------------------------------|

	Chorus 2
e|---------------------------------------------------------------------------|
B|---------------------------------------------------------------------------|
G|---------------------------------------------------------------------------|
D|--888888888888888--000-000000-0000--888888888888888--000-000--10(7x)-------|
A|--888888888888888--000-000000-0000--888888888888888--000-000--10(7x)-------|
E|--888888888888888--000-000000-0000--888888888888888--000-000--10(7x)-------|

e|---------------------------------------------------------------------------|
B|---------------------------------------------------------------------------|
G|--1010101010101010--9999-777-7-9-7-5-77777777------------------------------|
D|---------------------------------------------------------------------------|
A|--8-8-8-8-8-8-8-8---7777-555-5-7-5-3-55555555------------------------------|
E|---------------------------------------------------------------------------|

e|---------------------------------------------------------------------------|
B|---------------------------------------------------------------------------|
G|--9999-1010101010101010-9999-101010-12121212-10-9-10-1010-101010-----------|
D|---------------------------------------------------------------------------|
A|--7777-8-8-8-8-8-8-8-8--7777-8-8-8--10101010-8--7-8--8-8--8-8-8------------|
E|---------------------------------------------------------------------------|

	Outro
e|---------------------------------------------------------------------------|
B|---------------------------------------------------------------------------|
G|--------14-15-12-14----17-15-14----14--------------------------------------|
D|--12-15-------------15----------17----15-17-14-15--------------------------|
A|---------------------------------------------------------------------------|
E|---------------------------------------------------------------------------|

e|---------------------------------------------------------------------------|
B|---------------------------------------------------------------------------|
G|--------14-15-12-14----17-15-14----14--------------------------------------|
D|--12-15-------------15----------17----15-17-14-15--------------------------|
A|---------------------------------------------------------------------------|
E|---------------------------------------------------------------------------|

e|---------------------------------------------------------------------------|
B|---------------------------------------------------------------------------|
G|--------14-15-12-14----17-15-14----14--------------------------------------|
D|--12-15-------------15----------17----15-17-14-15--------------------------|
A|---------------------------------------------------------------------------|
E|---------------------------------------------------------------------------|

e|---------------------------------------------------------------------------|
B|---------------------------------------------------------------------------|
G|--------14-15-12-14----17-19-17-15-14-15-14----14--------------------------|
D|--12-15-------------15----------------------17-----------------------------|
A|---------------------------------------------------------------------------|
E|---------------------------------------------------------------------------|


x = palm mute

---------------|
---------------|
---------------|
---------------|
--xx-----------|
--00-----------|

open palm mute on low E string, same for others.
Добавлено: 06.05.2012
Другие материалы по этой песне:
  • Аккорды и текст

Страница создана 06.05.2012
http://primanota.ru/as-i-lay-dying/elegy-live-chords.htm
Привет, Гость.
Предлагаем пройти революционный курс по гитаре.
Подарок от PrimaNota.Ru, забирай!