PrimaNota.ru - самый крупный в мире бесплатный архив песенных текстов, аккордов, табулатур и нот


As I Lay Dying - Sentencednot Aild - таба

Регистрация Запомнить меня
Войти через:  Facebook Google Twitter Vk Yandex Mail.ru

As I Lay Dying - Sentencednot Aild - таба

Печатать
Просмотров: 138
This is one of my own bands songs that we love. Its not that hard to play and 
sounds amazing! have fun! [copy of this tab will resoult in federal punishment]

Song:Sentenced
Artist:Regreted-death
Tuning:drop D, D-A-D-G-B-E
(intro)rythym guitar
|-------------------------------------------------|
|-------------------------------------------------|
|-------------------------------------------------|
|-------------------------------------------------|
|-0-0-8888888877777755555-0-0-8888888877777755555-|
|-0-0---------------------0-0---------------------|
pm. .                     . .                     
rythym plays this while lead plays...
|-------------------------------------------------|
|-------------------------------------------------|
|-------------------------------------------------|
|-------------------------------------------------|
|-3-3-8888888877777755555-5-5-8888888877777733333-|
|-3-3---------------------5-5---------------------|
pm. .                     . .
this...
|-------------------------------------------------|
|-------------------------------------------------|
|-------------------------------------------------|
|-----8888888877777755555-----5555555577777733333-|
|-3-3---------------------5-5---------------------|
|-3-3---------------------5-5---------------------|
pm. .                     . .                     
both
|-------------------------------------------------|
|-------------------------------------------------|
|-------------------------------------------------|
|-------------------------------------------------|
|-0-0-8888888877777755555-0-0-8888888877777755555-|
|-0-0---------------------0-0---------------------|
pm. .                     . . 
rythym plays this while lead plays...
|------------------------------------------------|
|------------------------------------------------|
|------------------------------------------------|
|------------------------------------------------|
|-3-3-8888888877777755555-5-5-888888887777773~---|
|-3-3---------------------5-5--------------------|
pm. .                     . . 
this...
|------------------------------------------------|
|------------------------------------------------|
|------------------------------------------------|
|-----8888888877777755555-----555555557777773~---|
|-3-3---------------------5-5--------------------|
|-3-3---------------------5-5--------------------|
pm. .                     . .
both
|--------------------------------------------------|
|--------------------------------------------------|
|--------------------------------------------------|
|-0-0-0----7-7-7----5-7-|8-8-8|----3-3-3----3-3-3--|(x2)
|-0-0-0(x4)7-7-7(x3)5-7-|8-8-8|(x4)3-3-3(x2)3-3-3--|
|-0-0-0----7-7-7----5-7-|8-8-8|----3-3-3----2-2-2--|
pm                                          . .
(verse 1)lead guitar plays this while...
|--------------------------------------------------------------------|
|--------------------------------------------------------------------|
|--------------------------------------------------------------------|
|-0*---2-3-2-0-0---0*---2-3-2-0-0------------------3*--0*---2-3-2*---|
|----------------3----------------3-0*---2-3-2-0-0-------------------|
|--------------------------------------------------------------------|

|---------------------------------------------------------------------|
|---------------------------------------------------------------------|
|---------------------------------------------------------------------|
|-0*---2-3-2-0-0---0*---2-3-2-0-0---8*---7-8-7*------7*--2*---3-2-3*--|
|----------------3----------------3--------------8*-------------------|
|---------------------------------------------------------------------|
rythym plays...
|-------------------|
|-------------------|
|-------------------|
|-0-0--X--000000--X-|(x8)
|-0-0--X--000000--X-|
|-0-0--X--000000--X-|
pm. .  .  ......  .
both
|-------------------------------------------------|
|-------------------------------------------------|
|-------------------------------------------------|
|-0-0-0----7-7-7----5-7-|8-8-8|----3-3-3----3-3-3-|(x2)
|-0-0-0(x4)7-7-7(x3)5-7-|8-8-8|(x4)3-3-3(x2)3-3-3-|
|-0-0-0----7-7-7----5-7-|8-8-8|----3-3-3----2-2-2-|
pm                                          . .
(verse 2) lead plays this while rythym plays same as last time
|-------------------------------------------------------------------|
|-------------------------------------------------------------------|
|-------------------------------------------------------------------|
|-0000000022233322200000000----0000000022233322200000000------------|
|--------------------------3333-------------------------333300000000|
|-------------------------------------------------------------------|

|--------------------------------------------------------------------|
|--------------------------------------------------------------------|
|--------------------------------------------------------------------|
|------------------22220000002223332*---0000000022233322200000000----|
|-22233322200000000----------------------------------------------3333|
|--------------------------------------------------------------------|

|----------------------------------------------------------------------|
|----------------------------------------------------------------------|
|----------------------------------------------------------------------|
|-0000000022233322200000000----88888888777888777----7778888222222333222|
|--------------------------3333-----------------8888-------------------|
|----------------------------------------------------------------------|

|------|
|------|
|-^----|
|-3----|
|------|
|------|
both
|-------------------------------------------------|
|-------------------------------------------------|
|-------------------------------------------------|
|-0-0-0----7-7-7----5-7-|8-8-8|----3-3-3----3-3-3-|(x3)
|-0-0-0(x4)7-7-7(x3)5-7-|8-8-8|(x4)3-3-3(x2)3-3-3-|
|-0-0-0----7-7-7----5-7-|8-8-8|----3-3-3----2-2-2-|
pm                                          . .
on third rep, add this to end...
|------|
|------|
|------|This is where the second song picks up.
|-o*---|
|-o*---|
|-o*---|

|*=let note ring
|~=vibrato
|pm=palm-mute
|X=mute


if you like this song, email me at austin.lucas15@yahoo.com and tell me!
Добавлено: 09.05.2012
Другие материалы по этой песне:
  • Аккорды и текст

Страница создана 09.05.2012
http://primanota.ru/as-i-lay-dying/sentencednot-aild-chords.htm
Привет, Гость.
Предлагаем пройти революционный курс по гитаре.
Подарок от PrimaNota.Ru, забирай!