PrimaNota.ru - самый крупный в мире бесплатный архив песенных текстов, аккордов, табулатур и нот


As I Lay Dying - Distance Is Darkness - текст песни, таба, бас-таба, видео

Регистрация Запомнить меня
Войти через:  Facebook Google Twitter Vk Yandex Mail.ru

As I Lay Dying - Distance Is Darkness - текст песни, таба, бас-таба, видео

Печатать
Просмотров: 186
---------------------------------------------------------------------------

                  As I Lay Dying - Distance is Darkness

---------------------------------------------------------------------------

By : bleedingx3 (Tim Y.)
email : hex_x3@yahoo.com
AIM : Timofbodomxx

Tuning : Drop C ( C G C F A D )

Legend:

p = pull off
h = hammer on
. = palm mute
~ = vibrato
* = pinch harmonic
--------------------------------------

|-------------------|
|-15-15-15----------|
|-18-18-18----------| [4x]  
|-------------------|
|-------------------|
|-----------0000000-|
            .......

|-------------------|
|-------8p0---------|
|-7p0-------7*~-----|
|----7p0------------| [On the fourth time, instead of playing the opens,
|-------------------|  play this riff]
|-------------------|


|---------------------|
|---------------------|
|-7-0-7-0-7-----------|
|-7-0-7-0-7-----------|  [8x]
|-5-0-5-0-5-----------|
|-----------0-0-0-00--|
            . . . ..

|---------------------------------------------|
|---------------------------------------------|
|-77-7-7-----77-7-----77-7-7-----77-7-7-7-----| 
|-77-7-7-----77-7-----77-7-7-----77-7-7-7-----| [2x]
|-55-5-5-----55-5-----55-5-5-----55-5-5-5-----|
|---------------------------------------------|

|---------------------------------|
|------------------------------15-| [Guitar 1]
|-77-7-------77-7-7-7-[hold]---18-|
|-77-7-------77-7-7-7-[hold]------| [Guitar 2 holds]
|-55-5-------55-5-5-5-[hold]------| 
|---------------------------------|

|------------------|					  
|----15---15-15----|					  
|----18---18-18----| [Guitar 1] 
|------------------| 
|------------------|					  
|-000--000---------|					  
| ...  ...	   |		-- [4x]			     
|                  |
|------------------|                                   |--------------|
|------------------|                                   |--------------|
|------------------|                                   |--------------|
|------------------| [Guitar 2,][on fourth time play:] |--------------|
|------------------|                                   |--------------|
|-000--000---------|                                   |-000-000-0000-|
  ...  ...                                               ... ... ....


|------------------|					  
|----15---15-15----|					  
|----18---18-18----| [Together] [8x]
|------------------| 
|------------------|					  
|-000--000---------|					  
  ...  ...	   


|--------------------------------------------------------------------------------------|
|-----------8p0-------------------------8p0--------------8p0--------------------8p0----|
|-7-7-7p0------7p0-7-7-7p0----7-7-7p0------7p0-7-7-7p0------7p0---7p0-7-7-7p0------7p0-|
|-7-7----7p0-------7-7----7p0-7-7----7p0-------7-7----7p0------7p0----7-7----7p0-------|
|-5-5--------------5-5--------5-5--------------5-5--------------------5-5--------------|
|--------------------------------------------------------------------------------------|

|-------------------------------------------------------|
|-------------------------------------------------------|
|-7h5p0--7h5p0----7h5p0------7h5p0---7h5p0------7[hold]-|
|------7------7-7------7-7-7-------7------7-7-7-7[hold]-|
|-----------------------------------------------5[hold]-|
|-------------------------------------------------------|


|---------------------------------------------|
|---------------------------------------------|
|-77-7-7-----77-7-----77-7-7-----77-7-7-7-----| 
|-77-7-7-----77-7-----77-7-7-----77-7-7-7-----| [2x]
|-55-5-5-----55-5-----55-5-5-----55-5-5-5-----|
|---------------------------------------------|

|---------------------------------|
|---------------------------------|
|-77-7-------77-7-7-7-7-----------|
|-77-7-------77-7-7-7-7-----------| 
|-55-5-------55-5-5-5-5-----------| 
|---------------------------------|

|-----------------------------------|
|-----------------------------------|
|-----------------------------------|
|-00-0----00-0-0----00-0----00-0-0--|
|-00-0----00-0-0----00-0----00-0-0--|
|-00-0----00-0-0----00-0----00-0-0--|
  .. ..   .. . .    .. .    .. . . 

[He takes the breath, aha]
									
|----------------------------------------------------|		
|----------------------------------------------------|	
|-7777777777777777-1515151515151515\1010101010101010-|
|-7777777777777777-1515151515151515\1010101010101010-| [8x]
|-5555555555555555-1313131313131313\8-8-8-8-8-8-8-8--|
|----------------------------------------------------|
	
"There .. is .. love!"

|----|
|----|
|-14-|
|-14-| [Guitar 1]
|-12-|
|----|
|
|		
|---|
|---|
|-7-|
|-7-| [Guitar 2]
|-5-|
|---|
Добавлено: 27.02.2012
Другие материалы по этой песне:

Страница создана 27.02.2012
http://primanota.ru/as-i-lay-dying/distance-is-darkness-chords.htm
Привет, Гость.
Предлагаем пройти революционный курс по гитаре.
Подарок от PrimaNota.Ru, забирай!