PrimaNota.ru - самый крупный в мире бесплатный архив песенных текстов, аккордов, табулатур и нот


As I Lay Dying - Empty Hearts - текст песни, таба, бас-таба, видео

Регистрация Запомнить меня
Войти через:  Facebook Google Twitter Vk Yandex Mail.ru

As I Lay Dying - Empty Hearts - текст песни, таба, бас-таба, видео

Печатать
Просмотров: 223
ahh I seriously couldn't wait anymore for sumone to tab this solo out
so i finally did it this is for sure 99.9% right....sounds perfect at least

tip:if ur kinda new to these fast solos like me....Play it SLOW

until u got it memorized then speed it up!

alrite have fun....let me kno how it is

and all that good stuff


*edit*- thanks "RandomHeroJr." ur right about the tapping, makes it easy too lol



|------------------------------------------------------------------|
|------------------------------------------------------------------|
|-12-11-12--14-12-11--12-11-12-15-13-12--12-11-12--14-13-12--------|
|-----------------------------------------------------------12~----|
|------------------------------------------------------------------|
|------------------------------------------------------------------|


    
                                  

|--11-8-11--14-11-8--11-8-11--14-11-8--11-10-8--10-8--------------------|
|-----------------------------------------------------11-10~------------|
|-----------------------------------------------------------------------|
|-----------------------------------------------------------------------|
|-----------------------------------------------------------------------|
|-----------------------------------------------------------------------|



  T       T       T       T       T       T
|--------------------------------------------------------------|
|-12-7-8--14-7-8--15-7-8--14-7-8--19-7-8--17-7-8--15~----------|
|--------------------------------------------------------------|
|--------------------------------------------------------------|
|--------------------------------------------------------------|
|--------------------------------------------------------------|




use wt ever fret u want for the harmonic, they all sound good to me  
|----------------------------------------------------|
|----------------------------------------------------|
|----------------------------------------------------|cant really this part.
|--8-7-5--------------------------------------7*~----| listen closely
|--------8-7-5--5-7-10--10-7-5--8-7-5-8-7-5----------|
|----------------------------------------------------|





|----------------------------------------------------|
|--8~--7-8-10~--8-10-11~--10-11-13~----13p11p10------|
|----------------------------------------------------|
|----------------------------------------------------|
|----------------------------------------------------|
|----------------------------------------------------|





|----------------------------------------------------|
|----------------------------------------------------|
|----------------------------------------------------|
|--13-12-10---------------12-14-15-------------------|
|-------------10-12-13-------------------------------|
|----------------------------------------------------|




                             OR 
|-----------11p10p8p--15-14~-|---------------------15-14~--|
|--11p10p8-------------------|-----------16-15-13----------|
|----------------------------|--15-14-12-------------------|
|----------------------------|-----------------------------|
|----------------------------|-----------------------------|
|----------------------------|-----------------------------|





(tremlo pick about 4 per note)

|--20"--18"--17"--18"--17"--15"--14"----------------|
|-------------------------------------16"-----------|
|---------------------------------------------------|
|---------------------------------------------------|
|---------------------------------------------------|
|---------------------------------------------------|





|--14p11p10--11p10p8--10p8p6--8p6p5--2~/10~*--------|
|---------------------------------------------------|
|---------------------------------------------------|
|---------------------------------------------------|
|---------------------------------------------------|
|---------------------------------------------------|


AILY=the bomb
Добавлено: 27.02.2012
Другие материалы по этой песне:

Страница создана 27.02.2012
http://primanota.ru/as-i-lay-dying/empty-hearts-chords.htm
Привет, Гость.
Предлагаем пройти революционный курс по гитаре.
Подарок от PrimaNota.Ru, забирай!