PrimaNota.ru - самый крупный в мире бесплатный архив песенных текстов, аккордов, табулатур и нот


Ary Barroso - Aquarela do Brasil - таба, видео

Регистрация Запомнить меня
Войти через:  Facebook Google Twitter Vk Yandex Mail.ru

Ary Barroso - Aquarela do Brasil - таба, видео

Печатать
Просмотров: 240
Авторы музыки: Ary Barroso
Авторы текста: Ary Barroso
(INTRO)

e|-----2----0-----2------------------------------|
B|-----3----3-----2------------------------------|
G|-----0----0-----0------------------------------|
D|-----------------------------------------------|
A|-----------------------------------------------|
E|-----------------------------------------------|

(I)

e|--------------------------------------------------------------------------|
B|-------0----------2---------0---------2---------0-------------------------|
G|-------2----------2---------2---------2---------2-------------------------|
D|-------4----------4---------4---------3---------4-------------------------|
A|-------5----------5---------5---------5---------5-------------------------|
E|--------------------------------------------------------------------------|     
Brasil Brasil brasileiro    mulato inzoneiro

e|--------------------------------------------------------------------------|
B|--------------7----------------8--------7-----7---------------------------|
G|--------------6----------------8--------6-----5---------------------------|
D|--------------7----------------7--------7-----6---------------------------|
A|--------------5-------------------------6-----7---------------------------|
E|-------------------------------7------------------------------------------|
        vou cantar te nos meus versos

e|-------------------------------------------------------------------------|
B|--7--------------------3-------------------------------------------------|
G|--7--------------------4-------------------------------------------------|
D|--5--------------------5-------------------------------------------------|
A|-------------------------------------------------------------------------|
E|--0--------------------0-------------------------------------------------|
        Brasil samba que da  bamboleio que faz gingar

e|-------------------------------------------------------------------------|
B|--------------------------------2--------2----3----2---------------------|
G|--------------------------------3--------2----4----3---------------------|
D|--------------------------------5--------4----5----5---------------------|
A|--------------------------------0--------5---------0---------------------|
E|----------------------------------------------0--------------------------|
   o Brasil do meu amor terra de Nosso Senhor


(II)

e|-------------------------------------------------------------------------|
B|-0-----------3----------3----3----------------------------3--------------|
G|-2-----------3----------4----4----------------------------3--------------|
D|-4-----------2----------2----4----------------------------2--------------|
A|-5-----------------------------------------------------------------------|
E|-------------3----------3----3----------------------------3--------------|
    abre a cortina do passado       tira a mae preta do cerrado

e|-------------------------------------------------------------------------|
B|---------------------------2----1-----------------------1----------------|
G|---------------------------2----2-----------------------2----------------|
D|---------------------------2----2-----------------------1----------------|
A|-------------------------------------------------------------------------|
E|---------------------------2----2-----------------------2----------------|
     bota o rei congo no congado      canta de novo trobador

e|-------------------------------------------------------------------------|
B|------------------------------------1-----------3-----0------------------|
G|------------------------------------2-----------0-----0------------------|
D|------------------------------------1-----------2-----2------------------|
A|------------------------------------2------------------------------------|
E|------------------------------------------------0-----0------------------|
    a meremcoria luz da lua  toda cancao do seu amor

e|-------------------------------------------------------------------------|
B|--------------------3----------5----5-----------7------------------------|
G|--------------------3----------4----4-----------6----------6-----5-------|
D|--------------------2----------3----4-----------7----------6-----6-------|
A|------------------------------------------------5----------5-----5-------|
E|--------------------3----------4----5----------------------0-----0-------|
       quero ver a sa dona caminando     pelos saloes arrastando

e|-------------------------------------------------------------------------|
B|---7------------3---------2------3----2----------------------------------|
G|---7------------3---------2------4----3----------------------------------|
D|---5------------2---------0------5----5----------------------------------|
A|--------------------------------------0----------------------------------|
E|---0------------3---------2------0---------------------------------------|
         o seu vestido rendado

e|--------------------------------------------------------------------------|
B|-0-----------3----------3-----3--------------------------3----------------|
G|-2-----------3----------4-----4--------------------------3----------------|
D|-4-----------2----------2-----4--------------------------2----------------|
A|-5------------------------------------------------------------------------|
E|-------------2----------3-----3--------------------------3----------------|
     esse coqueiro que da coco       onde amarro a minha rede

e|-------------------------------------------------------------------------|
B|---------------------------2----1-----------------------1----------------|
G|---------------------------2----2-----------------------2----------------|
D|---------------------------2----2-----------------------1----------------|
A|--------------------------------------------------------2----------------|
E|---------------------------2----2----------------------------------------|
      nas noites claras de luar       oi essas fontes murmurantes
e|-------------------------------------------------------------------------|
B|------------------------------------------------------3-----0------------|
G|------------------------------------------------------0-----0------------|
D|------------------------------------------------------2-----2------------|
A|-------------------------------------------------------------------------|
E|------------------------------------------------------0-----0------------|
        onde eu mato a minha sede  e onde a lua vem brincar

e|------------------------------------------------5-------------------------|
B|----3--------------------------5----5-----------7----------7-----7--------|
G|----3--------------------------4----4-----------6----------7-----7--------|
D|----2--------------------------3----4----------------------6-----5--------|
A|------------------------------------------------5-------------------------|
E|----3--------------------------4----5----------------------0-----0--------|
    oh esse Brasil lindo e trigueiro    e o meu Brasil brasileiro


e|-------------6-----------------------------------------------------------|
B|-------------5--------5------3-----2-------------------------------------|
G|-------------6--------6------4-----3-------------------------------------|
D|----------------------4------5-----5-------------------------------------|
A|-------------0--------5------------0-------------------------------------|
E|-----------------------------0-------------------------------------------|
     terra de samba pandeiro

(III)

e|-------------------------------------------------------------------------|
B|----0----------2---------0---------2---------0-------7------------8----9-|
G|----2----------2---------2---------2---------2-------6------------8----8-|
D|----4----------4---------3---------4---------4-------7------------7----7-|
A|----5----------5---------5---------5---------5-------5-------------------|
E|------------------------------------------------------------------7----7-|
    Brasil terra boa e gostosa  da morena sestrosa de olhar indiferente

e|--------------------------------------------------------------------------|
B|--7---------------------------------------------3-------------------------|
G|--7---------------------------------------------4-------------------------|
D|--5---------------------------------------------5-------------------------|
A|--------------------------------------------------------------------------|
E|--0---------------------------------------------0-------------------------|
       Brasil samba que da para o mundo se ai givira

e|-------------------------------------------------------------------------|
B|--------------------------------2--------0----3----2---------------------|
G|--------------------------------3--------2----4----3---------------------|
D|--------------------------------5--------4----5----5---------------------|
A|--------------------------------0--------5---------0---------------------|
E|----------------------------------------------0--------------------------|
   o Brasil do meu amor terra de Nosso Senhor


e|--------------------------------------------------------------------------|
B|-0-----------3----------3-----3--------------------------3----------------|
G|-2-----------3----------4-----4--------------------------3----------------|
D|-4-----------2----------2-----4--------------------------2----------------|
A|-5------------------------------------------------------------------------|
E|-------------2----------3-----3--------------------------3----------------|
     abre a cortina do passado     tira a mae preta do cerrado

e|-------------------------------------------------------------------------|
B|---------------------------2----1------------1---------------------------|
G|---------------------------2----2------------2---------------------------|
D|---------------------------2----2------------1---------------------------|
A|-------------------------------------------------------------------------|
E|---------------------------2----2------------2---------------------------|
     bota o rei congo no congado      canta de novo trobador

e|-------------------------------------------------------------------------|
B|-------------------------------------------1----------3-----0------------|
G|-------------------------------------------2----------0-----0------------|
D|-------------------------------------------1----------2-----2------------|
A|-------------------------------------------2-----------------------------|
E|------------------------------------------------------0-----0------------|
           a meremcoria luz da lua  toda cancao do seu amor


e|------------------------------------------------5-------------------------|
B|----3--------------------------5----5-----------7----------7-----7--------|
G|----3--------------------------4----4-----------6----------7-----7--------|
D|----2--------------------------3----4----------------------6-----5--------|
A|------------------------------------------------5-------------------------|
E|----3--------------------------4----5----------------------0-----0--------|
       quero ver a sa dona caminando     pelos saloes arrastando

e|-------------6-----------------------------------------------------------|
B|-------------5--------5------3-----2-------------------------------------|
G|-------------6--------6------4-----3-------------------------------------|
D|----------------------4------5-----5-------------------------------------|
A|-------------0--------5------------0-------------------------------------|
E|-----------------------------0-------------------------------------------|
      o seu vestido rendado

e|--------------------------------------------------------------------------|
B|-0-----------3----------3-----3--------------------------3----------------|
G|-2-----------3----------4-----4--------------------------3----------------|
D|-4-----------2----------2-----4--------------------------2----------------|
A|-5------------------------------------------------------------------------|
E|-------------2----------3-----3--------------------------3----------------|
     esse coqueiro que da coco       onde amarro a minha rede

e|-------------------------------------------------------------------------|
B|---------------------------2----1-----------------------1----------------|
G|---------------------------2----2-----------------------2----------------|
D|---------------------------2----2-----------------------1----------------|
A|--------------------------------------------------------2----------------|
E|---------------------------2----2----------------------------------------|
      nas noites claras de luar       oi essas fontes murmurantes
e|-------------------------------------------------------------------------|
B|------------------------------------------------------3-----0------------|
G|------------------------------------------------------0-----0------------|
D|------------------------------------------------------2-----2------------|
A|-------------------------------------------------------------------------|
E|------------------------------------------------------0-----0------------|
        onde eu mato a minha sede  e onde a lua vem brincar

e|------------------------------------------------5-------------------------|
B|----3--------------------------5----5-----------7----------7-----7--------|
G|----3--------------------------4----4-----------6----------7-----7--------|
D|----2--------------------------3----4----------------------6-----5--------|
A|------------------------------------------------5-------------------------|
E|----3--------------------------4----5----------------------0-----0--------|
    oh esse Brasil lindo e trigueiro   e o meu Brasil brasileiro


e|-------------6--------------------------------------------------------------|
B|-------------5--------5------3-----2----------------------------------------|
G|-------------6--------6------4-----3----------------------------------------|
D|----------------------4------5-----5----------------------------------------|
A|-------------0--------5------------0----------------------------------------|
E|-----------------------------0----------------------------------------------|
     terra de samba e pandeiro

I,II....


e|--------------6-----------------------------------------------------------|
B|--------------5--------5------5--------5------5-----5---------------------|
G|--------------6--------6------4--------6------4-----6---------------------|
D|-----------------------4------4--------4------4-----4---------------------|
A|--------------0--------5------5--------5------5-----5---------------------|
E|--------------------------------------------------------------------------|
  ...terra de samba e pandeiro       Brasil.............
Добавлено: 07.04.2012
Другие материалы по этой песне:

Страница создана 07.04.2012
http://primanota.ru/ary-barroso/aquarela-do-brasil-chords.htm
Привет, Гость.
Предлагаем пройти революционный курс по гитаре.
Подарок от PrimaNota.Ru, забирай!