PrimaNota.ru - самый крупный в мире бесплатный архив песенных текстов, аккордов, табулатур и нот


Arctic Monkeys - Stickin To The Floor - текст песни, таба, бас-таба, видео

Регистрация Запомнить меня
Войти через:  Facebook Google Twitter Vk Yandex Mail.ru

Arctic Monkeys - Stickin To The Floor - текст песни, таба, бас-таба, видео

Печатать
Просмотров: 326
Авторы музыки: Alex Turner
Авторы текста: Alex Turner
Arctic Monkeys - Stickin To The Floor

Riff:
e----------------|
B----------------|
G---5-5-7b-5-----|
D-7----------7-7-| REST
A----------------|
E----------------|

Intro:
Riff x4

Verse:
Riff x4

Chorus:
e--------------------------------------------------------|
B--------------------------------------------------------|
G-7-7-7-7-7-7-7-7-5-5-5-5-4-3-2-2-2--7-7-7--2-2-2--7-7-7-|
D-7-7-7-7-7-7-7-7-5-5-5-5-4-3-2-2-2--7-7-7--2-2-2--7-7-7-|
A-5-5-5-5-5-5-5-5-3-3-3-3-2-1-0-0-0--5-5-5--0-0-0--5-5-5-|
E--------------------------------------------------------|

e-------------------------------|
B-------------------------------|
G-7-7-7-7-7-7-7-7-5-5-5-5-4-3-2-|
D-7-7-7-7-7-7-7-7-5-5-5-5-4-3-2-| DRUM BREAK
A-5-5-5-5-5-5-5-5-3-3-3-3-2-1-0-|
E-------------------------------|

Verse
Chorus

Solo (rhythm plays:)
e--------------|
B--------------|
G-2-2-2--7-7-7-|
D-2-2-2--7-7-7-|
A-0-0-0--5-5-5-| x6 then REST
E--------------|

Chorus

Solo 2 (rhythm plays:)
e--------------|
B--------------|
G--------------|
D----------5-7-|
A---3--5-7-----| x8 then Riff x1
E-5------------|

Verse
Chorus
Добавлено: 05.07.2012
Другие материалы по этой песне:

Страница создана 04.03.2012
http://primanota.ru/arctic-monkeys/stickin-to-the-floor-chords.htm
Привет, Гость.
Предлагаем пройти революционный курс по гитаре.
Подарок от PrimaNota.Ru, забирай!