PrimaNota.ru - самый крупный в мире бесплатный архив песенных текстов, аккордов, табулатур и нот


Arctic Monkeys - I Wanna Be Yours Extended - таба, видео

Регистрация Запомнить меня
Войти через:  Facebook Google Twitter Vk Yandex Mail.ru

Arctic Monkeys - I Wanna Be Yours Extended - таба, видео

Печатать
Просмотров: 191
Уроки эстрадного вокала в Санкт-Петербурге
e|---------------------------------------------------------------------------
B|--------------------------1\4-4\6-----4------------------------------------
G|-5-5/--3--------------------------5-3---5-3-5\12-121212-555\12-121212-12b13
D|--------3-\5--5b6--3--1----------------------------------------------------
A|---------------------------------------------------------------------------
E|---------------------------------------------------------------------------

e|---------------------------------------|
B|---------------------------------------|
G|-10-8-8/10-1010-8----8-10b11-----------|
D|------------------10---------10-----5--|
A|--------------------------------------6|
E|---------------------------------------|
Добавлено: 23.03.2016
Другие материалы по этой песне:
  • Аккорды и текст

Страница создана 23.03.2016
http://primanota.ru/arctic-monkeys/i-wanna-be-yours-extended-chords.htm
Привет, Гость.
Предлагаем пройти революционный курс по гитаре.
Подарок от PrimaNota.Ru, забирай!