PrimaNota.ru - самый крупный в мире бесплатный архив песенных текстов, аккордов, табулатур и нот


Archive - Lights - текст песни, таба, видео

Регистрация Запомнить меня
Войти через:  Facebook Google Twitter Vk Yandex Mail.ru

Archive - Lights - текст песни, таба, видео

Печатать
Просмотров: 309
ARCHIVE

Lights / Live at the Zenith (2007)

Tuning FADGBE

Basically there are two patterns repeating throughout this 15 minute song:
see below for instructions

I

 Am x4 | Fmaj7 x2 | Am x2

(sometimes played like this instead:)

 Am x4 | Fmaj7 x2 | AmII x2

II

 Dm x2 | G7 x2    | Csus4 | C4

______________________________________________

Am

E-----------------|------------------|
B-----------------|------------------|
G-----9-----9-----|-7-----7----------|
D---7-----7-----7-|-----7-----7-9h10-|
A-0-----0-----0---|---0-----0--------|
F-----------------|------------------|

Fmaj7

E-----------------|------------------|
B-----------------|------------------|
G-----9-----9-----|-7-----7----------|
D---7-----7-----7-|-----7-----7-9h10-|
A-----------------|------------------|
F-0-----0-----0---|---0-----0--------|

AmII

E-----------------|-----------------|
B-----------------|-----------------|
G-----9-----9-----|-9-----9-----9---|
D---7-----7-----7-|-----7-----7-----|
A-0-----0-----0---|---0-----0-------|
F-----------------|-----------------|

Dm

E-----------------|-----------------|
B-----6-----6-----|-6-----6-----6---|
G-----------------|-----------------|
D---7-----7-----7-|-----7-----7-----|
A-5-----5-----5---|---5-----5-------|
F-----------------|-----------------|

G7

E-----------------|-----------------|
B-----6-----6-----|-6-----6-----6---|
G---0-----0-----0-|-----0-----0-----|
D-----------------|-----------------|
A-----------------|-----------------|
F-2-----2-----2---|---2-----2-------|

Csus4

E-----------------|-----------------|
B-----6-----6-----|-6-----6-----6---|
G---0-----0-----0-|-----0-----0-----|
D-----------------|-----------------|
A-3-----3-----3---|---3-----3-------|
F-----------------|-----------------|

C

E-----------------|-----------------|
B-----5-----5-----|-5-----5-----5---|
G---0-----0-----0-|-----0-----0-----|
D-----------------|-----------------|
A-3-----3-----3---|---3-----3-------|
F-----------------|-----------------|

____________________________________________________

You can also play it in standard tuning -
All chords are the same, except for Fmaj7 and G7:

Fmaj7

E-----------------|------------------|
B-----------------|------------------|
G-----9-----9-----|-7-----7----------|
D---7-----7-----7-|-----7-----7-9h10-|
A-8-----8-----8---|---8-----8--------|
E-----------------|------------------|

G7

E-----------------|-----------------|
B-----6-----6-----|-6-----6-----6---|
G---0-----0-----0-|-----0-----0-----|
D-----------------|-----------------|
A-----------------|-----------------|
E-3-----3-----3---|---3-----3-------|
Добавлено: 03.04.2012
Другие материалы по этой песне:

Страница создана 03.04.2012
http://primanota.ru/archive/lights-chords.htm
Привет, Гость.
Предлагаем пройти революционный курс по гитаре.
Подарок от PrimaNota.Ru, забирай!