PrimaNota.ru - самый крупный в мире бесплатный архив песенных текстов, аккордов, табулатур и нот


Aqua Timez - Isshun No Chiri - таба, видео

Регистрация Запомнить меня
Войти через:  Facebook Google Twitter Vk Yandex Mail.ru

Aqua Timez - Isshun No Chiri - таба, видео

Печатать
Просмотров: 191
Aqua Timez: Isshun no Chiri
tabbed by: Gabriel Mojica

this is my own interpretation of the song.
=============================================================================
Intro:

(Acoustic guitar)
Repeat x8

e|------------------------------------------------------4(h)2---------------|
B|---------5--------------------------------------------------2-------------|
G|-----7-----7---7------------5-----------6----------2----------2---------1-|
D|---7---------7---7--------5---5-------6---6---4--4--------------4-----2---|
A|-5-----5----------------7-----------4---------4---------------------2-----|
E|----------------------0-----------0-----------2---------------------------|


e|------------------|
B|-2(p)0------------|
G|-------2(p)1---2--|
D|------------------|
A|------------------|
E|------------------|


Intro Guitar Solo:

e|-7/9-----4(h)5(h)7----5---4--4---5----5/7--7---5---5-----4(h)5(p)4-------|
B|-------------------------------------------------------------------------|
G|-------------------------------------------------------------------------|
D|-------------------------------------------------------------------------|
A|-------------------------------------------------------------------------|
E|-------------------------------------------------------------------------|


e|--------------------------------------------------4---5---5/7---5--4(h)5-|
B|--5---0(h)2--0-----------------0--2--3--5---5/7--------------------------|
G|----------------2--2-----1--2--------------------------------------------|
D|-------------------------------------------------------------------------|
A|-------------------------------------------------------------------------|
E|-------------------------------------------------------------------------|

e|-10/12----12--12/14---12/14---12---9--9--7--5---5--7/9--10--9----17--16--|
B|-------------------------------------------------------------------------|
G|-------------------------------------------------------------------------|
D|-------------------------------------------------------------------------|
A|-------------------------------------------------------------------------|
E|-------------------------------------------------------------------------|

e|-14---19--|
B|----------|
G|----------|
D|----------|
A|----------|
E|----------|

=============================================================================
pre-verse/verse
(1st guitar)

e|----------------------------------|
B|----------------------------------|
G|---------------------1--1--1--1---|   repeat until pre-chorus.
D|---4---4--4--4--4----2--2--2--2---|
A|---4---4--4--4--4----2--2--2--2---|
E|---0(h)2--2--2--2-----------------|

(2nd guitar)

e|---4(h)5---5----|
B|---5-------5----|
G|----------------|
D|---4-------4----|
A|----------------|
E|----------------|

=============================================================================
pre-chorus:

e|-5----7----4----2----0---|
B|-5----7----4----2----0---|
G|-7----9----6----2----1---|   repeat x2
D|-7----9----6----4----2---|
A|-5----7----4----4----2---|
E|-x----x----x----2----0---|


chorus:

e|--------4----5----7----|
B|--------5----5----7----|
G|--------4----7----9----|   repeat x2
D|---4----6----7----9----|   final chorus repeat x4
A|---4----4----5----7----|
E|---2----x----x----x----|

outro chorus:

e|---4(h)5---5----|
B|---5-------5----|
G|----------------|
D|---4-------4----|
A|----------------|
E|----------------|


=============================================================================
| /  slide up
| \  slide down
| h  hammer-on
| p  pull-off
| ~  vibrato
| +  harmonic
| x  Mute note
=============================================================================
Добавлено: 08.07.2012
Вам также может быть интересно:
Другие материалы по этой песне:
  • Аккорды и текст

Страница создана 08.07.2012
http://primanota.ru/aqua-timez/isshun-no-chiri-chords.htm
Привет, Гость.
Предлагаем пройти революционный курс по гитаре.
Подарок от PrimaNota.Ru, забирай!