PrimaNota.ru - самый крупный в мире бесплатный архив песенных текстов, аккордов, табулатур и нот


Вивальди Антонио - Концерт №6 в Am для виолночели - аккорды и текст

Регистрация Запомнить меня
Войти через:  Facebook Google Twitter Vk Yandex Mail.ru

Вивальди Антонио - Концерт №6 в Am для виолночели - аккорды и текст

Печатать
Просмотров: 148
Концерт №6 в Am для виолночели
Вивальди Антонио
размер: 2/4
E|--------7--|-8---7---|----------|--------------|-------------|
B|----10-----|---------|-10---10--|-8------------|-------------|
G|-9---------|---------|----------|----10--9--7--|-------------|
D|-----------|---------|----------|--------------|-10--9--7--9-|
A|-----------|---------|----------|--------------|-------------|
E|-----------|---------|----------|--------------|-------------|
 
E|--------|----|---------7--|-8---7---|----------|-------------|
B|--------|----|-----10-----|---------|-10---10--|-8-----------|
G|------7-|-9--|--9---------|---------|----------|----10--9--7-|
D|-10-----|----|------------|---------|----------|-------------|
A|--------|----|------------|---------|----------|-------------|
E|--------|----|------------|---------|----------|-------------|

E|-------------|--------|-------|-8--8--8--8-|-8-----8-8-----8-|
B|-------------|--------|-------|------------|-----------------|
G|-------------|------7-|-9---9-|------------|---7-7-----7-7---|
D|-10--9--7--9-|-10-----|-------|------------|-----------------|
A|-------------|--------|-------|------------|-----------------|
E|-------------|--------|-------|------------|-----------------|

E|-7--7--7--7--|-7-----7-7-----7-|-5--5--5--5--|-4----4-5--7-5-|
B|-------------|-----------------|-------------|----7----------|
G|-------------|---5-5-----5-5---|-------------|---------------|
D|-------------|-----------------|-------------|---------------|
A|-------------|-----------------|-------------|---------------|
E|-------------|-----------------|-------------|---------------|

E|-4----4-5--7-5-|-4--2-0-1--0---|-0------|------|-------------|
B|----7----------|-------------3-|--------|------|-------------|
G|---------------|---------------|-----10-|-9-10-|-9-7-9-10-10-|
D|---------------|---------------|--------|------|-------------|
A|---------------|---------------|--------|------|-------------|
E|---------------|---------------|--------|------|-------------|

E|-----------|---------5-7|-8-8-10-12-|--------|------5-8-7-10-|
B|-----------|--7-9-10----|-----------|-10---9-|-10-5----------|
G|9-7-9-10-10|9-----------|-----------|----9---|---------------|
D|-----------|------------|-----------|--------|---------------|
A|-----------|------------|-----------|--------|---------------|
E|-----------|------------|-----------|--------|---------------|

E|8-7|-----|-----------------|--------------|------------------|
B|---|10-10|8-10-6-8-5-6-3-5-|-1-3-0-1---10-|-8-10-6-8-5-6-3-5-|
G|---|-----|-----------------|---------2----|------------------|
D|---|-----|-----------------|--------------|------------------|
A|---|-----|-----------------|--------------|------------------|
E|---|-----|-----------------|--------------|------------------|

E|-----------|--------------|------------------|---------------|
B|1-3-0-1----|--8---8--8----|10-8-----10-8-----|6-------6------|
G|--------2-9|9--10--9--10-9|----10-9------10-9|--7-6-7---7-6-7|
D|-----------|--------------|------------------|---------------|
A|-----------|--------------|------------------|---------------|
E|-----------|--------------|------------------|---------------|

E|-----------------|-----------------|-----------------|
B|-8-6-----8-6-----|-5-------5-------|-6-5-----6-5-----|
G|-----9-7-----9-7-|---5-4-5---5-4-5-|-----7-5-----7-5-|
D|-----------------|-----------------|-----------------|
A|-----------------|-----------------|-----------------|
E|-----------------|-----------------|-----------------|

E|-----------------|
B|-3-------3-------|
G|---4-2-4---4-2-4-|
D|-----------------|
A|-----------------|
E|-----------------|

E|-----------------|---------5-7-5-7-|---------5-7-5-7-|
B|-5-3-----5-3-----|-------5---------|-------5---------|
G|-----5-4-----5-4-|-5---5-----------|-5---5-----------|
D|-----------------|---7-------------|---7-------------|
A|-----------------|-----------------|-----------------|
E|-----------------|-----------------|-----------------|

E|---------5-7-5-7-|
B|-4---4-7---------|
G|---4-------------|

D|-----------------|
A|-----------------|
E|-----------------|

E|---------5-7-5-7-|-3-2-0---------|-----0-2-|-3-2-|-0-----0-2-|
B|-4---4-7---------|-------4-5-5-5-|-5-0-----|-----|----0------|
G|---4-------------|---------8-8-8-|---------|-----|-----------|
D|-----------------|---------------|---------|-----|-----------|
A|-----------------|---------------|---------|-----|-----------|
E|-----------------|---------------|---------|-----|-----------|

E|3-2|0--|-------------------|---------------|-----------------|
B|---|---|8-10-8-10-8-10-8-10|8-7-8-10-8-7-5-|-7-8-7-8-7-8-7-8-|
G|---|---|-------------------|---------------|-----------------|
D|---|--9|-------------------|---------------|-----------------|
A|---|---|-------------------|---------------|-----------------|
E|---|---|-------------------|---------------|-----------------|

E|----------------|-----------------|----------------|
B|-7--5-7-8-7-5-4-|-5-7-5-7-5-7-5-7-|-5--4-5-7-5-4-2-|
G|----------------|-----------------|----------------|
D|----------------|-----------------|----------------|
A|----------------|-----------------|----------------|
E|----------------|-----------------|----------------|

E|-----------7-|
B|-4--2-4-0----|
G|-------------|
D|-------------|
A|-------------|
E|-------------|

E|-4----4-5--7-5-|-4----4-5--7-5-|-4--2-0-1--0---|-0----|------|
B|----7----------|----7----------|-------------3-|------|------|
G|---------------|---------------|---------------|---10-|-9-10-|
D|---------------|---------------|---------------|------|------|
A|---------------|---------------|---------------|------|------|
E|---------------|---------------|---------------|------|------|

E|-------------|--------------|----------------|-----8-10-12---|
B|-------------|--------------|---7-9-10-10-12-|-13------------|
G|-9-7-9-10-10-|-9-7-9-10--10-|-9--------------|-------------9-|
D|-------------|--------------|----------------|---------------|
A|-------------|--------------|----------------|---------------|
E|-------------|--------------|----------------|---------------|

E|---------------8-10-|-12-----------|---------------8-10-|
B|-10--10-12-13-------|--------------|-10--10-12-13-------|
G|--------------------|-----9--9--9--|--------------------|
D|--------------------|--------------|--------------------|
A|--------------------|--------------|--------------------|
E|--------------------|--------------|--------------------|

E|-12----------|
B|-------------|
G|-----9--9--9-|
D|-------------|
A|-------------|
E|-------------|

E|-5-------5-------|-5-------5-------|-------0-------0-|
B|-------5-------5-|-------5-------5-|-8-------8-------|
G|-----6-------6---|-----6-------6---|-----6-------6---|
D|---7-------7-----|---7-------7-----|---7-------7-----|
A|-----------------|-----------------|-----------------|
E|-----------------|-----------------|-----------------|

E|-------0-------0-|
B|-8-------8-------|
G|-----6-------6---|
D|---7-------7-----|
A|-----------------|
E|-----------------|

E|-2---------------|-----------------|-----------------|
B|---------3-------|-3-------3-------|-1-------1-------|
G|-------2-------2-|-------2-------2-|-------2-------2-|
D|-----4-------4---|-----4-------4---|---0-4-----0-4---|
A|---5-------5-----|---5-------5-----|-----------------|
E|-----------------|-----------------|-----------------|

E|-----------------|
B|-1-------1-------|
G|-------2-------2-|
D|---0-4-----0-4---|
A|-----------------|
E|-----------------|

E|-------------0-1-|-3-----0-1-3-5-7-|-8-------8-------|
B|-0-----0-1-3-----|---1-3-----------|---8---8---8---8-|
G|---0-2-----------|-----------------|-----9-------9---|
D|-----------------|-----------------|-----------------|
A|-----------------|-----------------|-----------------|
E|-----------------|-----------------|-----------------|

E|-8-------8-------|
B|---8---8---8---8-|
G|-----9-------9---|
D|-----------------|
A|-----------------|
E|-----------------|

E|-8-------8-------|-8-------8-------|-7-------7-------|

B|---8---8---8---8-|---8---8---8---8-|---8---8---8---8-|
G|-----7-------7---|-----7-------7---|-----7-------7---|
D|-----------------|-----------------|-----------------|
A|-----------------|-----------------|-----------------|
E|-----------------|-----------------|-----------------|

E|-7-------7-------|
B|---8---8---8---8-|
G|-----7-------7---|
D|-----------------|
A|-----------------|
E|-----------------|

E|-8----------|---------|-------------|---------|-------|
B|------------|-5-------|-------------|-5-------|-------|
G|------5--7--|-----7---|-5-----5--7--|-----7---|-5---9-|
D|---5--------|---------|----5--------|---------|-------|
A|------------|---------|-------------|---------|-------|
E|------------|---------|-------------|---------|-------|

E|----------------|---------7------|--------------|------------|
B|-10--10--10--10-|-10--8-7----10--|-8--7---------|----------7-|
G|----------------|----------------|------9----8--|-9-----9----|
D|----------------|----------------|--------9-----|----9-------|
A|----------------|----------------|--------------|------------|
E|----------------|----------------|--------------|------------|

E|---------|-------------|---------|--------|-8--8--8--8-|
B|-8---7---|----------7--|-8---7---|--------|------------|
G|---------|-9-----9-----|---------|-9---9--|------------|
D|---------|----9--------|---------|--------|------------|
A|---------|-------------|---------|--------|------------|
E|---------|-------------|---------|--------|------------|

E|-8-----8-8-----8-|-7--7--7--7-|-7-----7-7-----7-|-5--5--5--5-|
B|-----------------|------------|-----------------|------------|
G|---7-7-----7-7---|------------|---5-5-----5-5---|------------|
D|-----------------|------------|-----------------|------------|
A|-----------------|------------|-----------------|------------|
E|-----------------|------------|-----------------|------------|

E|-4-4-7-4--|-7-4-7-4--|----0-0-0----0-0-0-|----0-0-0----0-0-0-|
B|--5-5-5-5-|--5-5-5-5-|-10-------10-------|-12-------12-------|
G|----------|----------|-------------------|-------------------|
D|----------|----------|-------------------|-------------------|
A|----------|----------|-------------------|-------------------|
E|----------|----------|-------------------|-------------------|

E|----0-0-0----0-0-0|----0-0-0----0-0-0|-12------7|-8-7|-------|
B|-13-------13------|-15-------15------|------10--|----|-10-10-|
G|------------------|------------------|----9-----|----|-------|
D|------------------|------------------|----------|----|-------|
A|------------------|------------------|----------|----|-------|
E|------------------|------------------|----------|----|-------|

E|----------|-----------|--------|-------|-8-10-8-10-8-10-8-10-|
B|-8--------|-----------|--------|-------|---------------------|
G|---10-9-7-|-----------|------7-|-9---9-|---------------------|
D|----------|-10-9-7--9-|-10-----|-------|---------------------|
A|----------|-----------|--------|-------|---------------------|
E|----------|-----------|--------|-------|---------------------|

E|8-7-8-10-8-7-5|7-8-7-8-7-8-7-8|7-5-7-8-7-5-4|5-7-5-7-5-7-5-7-|
B|--------------|---------------|-------------|----------------|
G|--------------|---------------|-------------|----------------|
D|--------------|---------------|-------------|----------------|
A|--------------|---------------|-------------|----------------|
E|--------------|---------------|-------------|----------------|

E|-4---4-5--7-5-|-4----4-5--7-5-|-4--2-0-1--0---|-0-5-4-5-0--1-|
B|---7----------|----7----------|-------------3-|--------------|
G|--------------|---------------|---------------|--------------|
D|--------------|---------------|---------------|--------------|
A|--------------|---------------|---------------|--------------|
E|--------------|---------------|---------------|--------------|

E|-0-5-4-5-0----|-------------|--------------|-----------------|
B|--------------|-------------|--------------|---7-9-10--10-12-|
G|-----------10-|-9-7-9-10-10-|-9-7-9-10--10-|-9---------------|
D|--------------|-------------|--------------|-----------------|
A|--------------|-------------|--------------|-----------------|
E|--------------|-------------|--------------|-----------------|

E|-----8-10-12---|---------------|--------------|--------------|
B|-13------------|--------10-----|----10-----9--|-10----10--10-|
G|-------------9-|-10--9---------|--------------|----9---------|
D|---------------|------------10-|-9------9-----|--------------|
A|---------------|---------------|--------------|--------------|
E|---------------|---------------|--------------|--------------|

E|---------------|--------------|---------------|--------------|
B|-9-7-5-7-8--10-|-7-5-3-5-6--8-|-5-3-1-3-5--6--|-3-1-0-1-3--5-|
G|---------------|--------------|---------------|--------------|
D|---------------|--------------|---------------|--------------|
A|---------------|--------------|---------------|--------------|
E|---------------|--------------|---------------|--------------|

E|-------0-5-----|----5-----4--|-5-----@-|
B|-1---1---------|-------------|-------@-|
G|---2--------5--|-4-----4-----|-------@-|
D|---------------|-------------|-------@-|
A|---------------|-------------|-------@-|
E|---------------|-------------|-------@-|
Добавлено: 08.09.2013
Другие материалы по этой песне:
  • Аккорды и текст

Страница создана 08.09.2013
http://primanota.ru/antonio-vivaldi/koncert-n6-v-am-dlya-violnocheli-chords.htm
Привет, Гость.
Предлагаем пройти революционный курс по гитаре.
Подарок от PrimaNota.Ru, забирай!