PrimaNota.ru - самый крупный в мире бесплатный архив песенных текстов, аккордов, табулатур и нот


Antonio Pinto - The Real Mcfarlands - таба, видео

Регистрация Запомнить меня
Войти через:  Facebook Google Twitter Vk Yandex Mail.ru

Antonio Pinto - The Real Mcfarlands - таба, видео

Печатать
Просмотров: 142
Уроки эстрадного вокала в Санкт-Петербурге
Tabbed by: Greentoped

The Real McFarlands
Antonio Pinto

(/) Slide Up  (\) Slide Down  (h) Hammer On  (p) Pull Off  
Tuning: Standard

Opening (3x):

e|--------------------------|
B|-----8-----8-----7-----5--|
G|-----9-----9-----7-----5--|
D|--------------------------|
A|--7-----7-----5-----3-----|
E|--------------------------|

Riff 1:

e|-----------------------------------------------|
B|----------7--8--7h8p7--------------------------|
G|--7h9------------------9--7--9--4-----2p0--2---|
D|-----------------------------------------------|
A|-----------------------------------------------|
E|-----------------------------------------------|

Riff 2:

e|-----------------------7--8--7h8p7---------7------------------------------|
B|-------------7--8--10---------------10--8--------10--8--8h10--8--7--8-----|
G|--7--7h9---------------------------------------------------------------9--|
D|--------------------------------------------------------------------------|
A|--------------------------------------------------------------------------|
E|--------------------------------------------------------------------------|

Riff 3:

e|------------------------------|
B|-----5------------------------|
G|--7-----7--5--4h5p4--2--0-----|
D|---------------------------2--|
A|------------------------------|
E|------------------------------|

Riff 4:

e|------------------------10------8--7h8p7-------------7-----------|
B|--5-------8--10--10/12------12------------10--8--10-----8--0--5--|
G|--7h9------------------------------------------------------------|
D|-----------------------------------------------------------------|
A|-----------------------------------------------------------------|
E|-----------------------------------------------------------------|

Riff 5:

e|---------------------------------------------------------------|
B|------------------------------------------------------0-----1--|
G|--7h9-----9p7--4--5--2--0--4--0-----------0--1--2--3-----------|
D|---------------------------------2-----2-----------------------|
A|---------------------------------------------------------------|
E|---------------------------------------------------------------|

Riff 6:

e|--------------2--3--3/5--5/7--7--3--0--5\3----------------|
B|--5--3--5--5--------------------------------8--7--7h8--5--|
G|----------------------------------------------------------|
D|----------------------------------------------------------|
A|----------------------------------------------------------|
E|----------------------------------------------------------|
Repeat Riffs 3 and 4 1x

e|--------|
B|--------|
G|--9h11--|
D|--------|
A|--------|
E|--------|

Repeat Riffs 4 2x, Riff 1 , Riff 2, Riff 1, Riff 3, Riff 4

Ending (3x):

e|--------------------------|
B|-----8-----8-----7-----5--|
G|-----9-----9-----7-----5--|
D|--------------------------|
A|--7-----7-----5-----3-----|
E|--------------------------|
Добавлено: 16.06.2016
Вам также может быть интересно:
Другие материалы по этой песне:
  • Аккорды и текст

Страница создана 16.06.2016
http://primanota.ru/antonio-pinto/real-mcfarlands-chords.htm
Привет, Гость.
Предлагаем пройти революционный курс по гитаре.
Подарок от PrimaNota.Ru, забирай!