PrimaNota.ru - самый крупный в мире бесплатный архив песенных текстов, аккордов, табулатур и нот


Дворжак Антонин - Op 101 - Humoresque No 7 - таба, видео

Регистрация Запомнить меня
Войти через:  Facebook Google Twitter Vk Yandex Mail.ru

Дворжак Антонин - Op 101 - Humoresque No 7 - таба, видео

Печатать
Просмотров: 533
Humoresque (Op 101, No 7)
By Antonin Dvorak (1841-1904)
Tabbed by Richard Finlan - Feb 2003.
This well known tune is not too difficult but
it might take some practice to get the lento/legato correct.
It's in 4/4 time, in the key of G.
Note: The duff notes that crop up are deliberate as
this piece is intended to be humourous.
I hope you enjoy it, but don't put any naughty words to it.

1     |   .   |   .   |   .   |   .        |   .   |   .   |   .   |   .
E |---------------------------0--------|---3-----2-5-----3-2-----5-3-----0--|
B |-------------------0-----3-------3--|------------------------------------|
G |*--0-----2-0-----2---------0--------|-----------0---------------0--------|
D |*------------------0----------------|-------------------2----------------|
A |-----------2------------------------|---3--------------------------------|
E |---3--------------------------------|------------------------------------|

3     |   .   |   .   |   .   |   .        |   .   |   .   |   .   |   .
E |-----------0-------3-----0----------|------------------------------------|
B |---3-----3-------3---------3-----0--|------------------------------------|
G |---------------------------0--------|---2--------------------------------|
D |-------------------0----------------|---0-------2-------0----------------|
A |-----------2------------------------|---------------------------3--------|
E |---3--------------------------------|------------------------------------|

5     |   .   |   .   |   .   |   .        |   .   |   .   |   .   |   .
E |---------------------------0--------|---0-----2-5-----3-2-----5-3-----0--|
B |-------------------0-----3-------3--|------------------------------------|
G |---0-----2-0-----2---------0--------|-----------0---------------0--------|
D |-------------------0----------------|-------------------2----------------|
A |-----------2------------------------|---3--------------------------------|
E |---3--------------------------------|------------------------------------|

7     |   .   |   .   |   .   |   .        |   .   |   .   |   .   |   .
E |-----------3------------------------|-----------------------------------||
B |---3-----3-----------------3--------|-----------------------------------||
G |-----------------0-2----------------|---0------------------------------*||
D |-----------2-------0----------------|-----------0----------------------*||
A |---2--------------------------------|-----------------------------------||
E |------------------------------------|-------------------3---------------||

17    |   .   |   .   |   .   |   .        |   .   |   .   |   .   |   .
E |-----------7-----5-5-------3--------|---3-------2-----0-0----------------|
B |-----------8---------------0--------|-----------3---------------3--------|
G |---0-------0-----------0------------|-------0-------------------1--------|
D |-------0----------------------------|-----------------------2------------|
A |------------------------------------|---3--------------------------------|
E |---3---------------7----------------|-------------------0----------------|

19    |   .   |   .   |   .   |   .        |   .   |   .   |   .   |   .
E |---------------0--------------------|------------------------------------|
B |---3-------1-------3-------1--------|---0--------------------------------|
G |-----------2------------------------|-------2---0---------------0---2----|
D |-------2-------0---4-------2---4----|-----------0------------------------|
A |---0---------------5----------------|-------------------2----------------|
E |------------------------------------|---3--------------------------------|

21    |   .   |   .   |   .   |   .        |   .   |   .   |   .   |   .
E |-----------7-----5-5-------3--------|---3-------2---0---0----------------|
B |---0-------8---------------0--------|-----------3---------------3--------|
G |-----------0-----------0------------|-------0-------------------1--------|
D |-------0----------------------------|-----------------------2------------|
A |-------------------2----------------|---3--------------------------------|
E |---3--------------------------------|-------------------0----------------|

23    |   .   |   .   |   .   |   .        |   .   |   .   |   .   |   .
E |---------------0--------------------|------------------------------------|
B |---3---1---3-------0-------0---1----|---0--------------------------------|
G |-----------0-----------2------------|---2-------4---------------2--------|
D |-----------2------------------------|---1-------1---------------4--------|
A |---0---------------4----------------|-----------0-------4-------3--------|
E |-------------------5----------------|------------------------------------|

25    |   .   |   .   |   .   |   .        |   .   |   .   |   .   |   .
E |---------------------------0--------|---3-----2-5-----3-2-----5-3-----0--|
B |-------------------0-----3-------3--|------------------------------------|
G |---0-----2-0-----2---------0--------|-----------0---------------------0--|
D |-------------------0----------------|-------------------2----------------|
A |-----------2------------------------|---3--------------------------------|
E |---3--------------------------------|------------------------------------|

27    |   .   |   .   |   .   |   .        |   .   |   .   |   .   |   .
E |-----------0-------3-----0----------|------------------------------------|
B |---3-----3-------3---------3-----0--|------------------------------------|
G |---------------------------0--------|---2--------------------------------|
D |-------------------0----------------|---0-------2-------0----------------|
A |-----------2------------------------|---------------------------3--------|
E |---3--------------------------------|------------------------------------|

29    |   .   |   .   |   .   |   .        |   .   |   .   |   .   |   .
E |---------------------------0--------|---3-----2-5-----3-2-----5-3-----0--|
B |-------------------0-----3-------3--|---1--------------------------------|
G |---0-----2-0-----2---------0--------|---------------------------0--------|
D |-------------------0----------------|-------------------2----------------|
A |-----------2------------------------|-----------3------------------------|
E |---3--------------------------------|------------------------------------|

31    |   .   |   .   |   .   |   .        |   .   |   .   |   .   |   .
E |-----------6-------------6-5-----0--|---3-------------------------------||
B |---3-----3-------3------------------|---0-------------------------------||
G |-------------------6-------5--------|---0-------------------------------||
D |---------------------------0--------|-----------0-----------------------||
A |---2--------------------------------|-----------------------------------||
E |-----------0------------------------|-------------------3---------------|| 

the key now changes to G minor

33    |   .   |   .   |   .   |   .        |   .   |   .   |   .   |   .
E |------------------------------------|------------------------------------|
B |------------------------------------|------------------------------------|
G |---0---2---3---2---3-------2---0----|------------------------------------|
D |---0---------------1----------------|---3---------------0---3------------|
A |------------------------------------|-----------3-------2----------------|
E |---3--------------------------------|---1--------------------------------|

35    |   .   |   .   |   .   |   .        |   .   |   .   |   .   |   .
E |------------------------------------|------------------------------------|
B |------------------------------------|-----------1------------------------|
G |---0---2---3---2---3-------2---0----|-------------------3----------------|
D |---0---------------1----------------|---3---------------0----------------|
A |------------------------------------|---0---------------1----------------|
E |---3--------------------------------|------------------------------------|

37    |   .   |   .   |   .   |   .        |   .   |   .   |   .   |   .
E |------------------------------------|------------------------------------|
B |------------------------------------|------------------------------------|
G |---0---2---3---2---3-------2--------|-------0----------------------------|
D |---0---------------1----------0-----|---3-------3-------0---3------------|
A |------------------------------------|--------------3----1----------------|
E |---3--------------------------------|---1--------------------------------|

                                                    
39    |   .   |   .   |   .   |   .        |   .   |   .   |   .   |   .
E |------------------------------------|------------------------------------|
B |------------------------------------|-----------4-------3----------------|
G |---0---2---3---2---3-------2---0----|---0-------0------------------------|
D |---0---------------1----------------|---1---------------4----------------|
A |------------------------------------|---0---------------5----------------|
E |---3--------------------------------|------------------------------------|

      B3_____________                      B1______________________________
41    |   .   |   .   |   .   |   .        |   .   |   .   |   .   |   .
E |---3---5---6---5---6-------5---3----|---1---3---1-----------1------------|
B |------------------------------------|---------------1---3----------------|
G |---3---------------0----------------|---2--------------------------------|
D |------------------------------------|------------------------------------|
A |-------------------6----------------|-------------------1----------------|
E |---3--------------------------------|---1--------------------------------|

      B3_____________                                      B6______________
43    |   .   |   .   |   .   |   .        |   .   |   .   |   .   |   .
E |---3---5---6---5---8---6---5---3----|-----------8-------6----------------|
B |------------------------------------|---6--------------------------------|
G |---3---------------0----------------|---5---------------7----------------|
D |------------------------------------|------------------------------------|
A |-------------------6----------------|---0--------------------------------|
E |---3--------------------------------|-------------------6----------------|

45    |   .   |   .   |   .   |   .        |   .   |   .   |   .   |   .
E |------------------------------------|------------------------------------|
B |-------------------1----------------|------------------------------------|
G |---0---2---3---2---0---3---2---0----|-------0----------------------------|
D |---0---0---0---0---1----------------|---3-------3-------0---3------------|
A |------------------------------------|---------------3---1----------------|
E |---3--------------------------------|---1--------------------------------|

47    |   .   |   .   |   .   |   .        |   .   |   .   |   .   |   .
E |------------------------------------|-----------1-----------------------||
B |------------------------------------|-------------------4-------3-------||
G |---0---2---3---2---3-------2---0----|---0-------2-------0---------------||
D |---0---0---0---0---1----------------|---1-----------------------4-------||
A |------------------------------------|---0-----------------------5-------||
E |---3--------------------------------|-----------------------------------||

the key returns to G major

49    |   .   |   .   |   .   |   .        |   .   |   .   |   .   |   .
E |---------------------------0--------|---3-----2-5-----3-2-----5-3-----0--|
B |-------------------0-----3-------3--|------------------------------------|
G |---0-----2-0----2----------0--------|-----------0---------------0--------|
D |-------------------0----------------|-------------------2----------------|
A |-----------2------------------------|---3--------------------------------|
E |---3--------------------------------|------------------------------------|

51    |   .   |   .   |   .   |   .        |   .   |   .   |   .   |   .
E |-----------0-------3-----0----------|------------------------------------|
B |---3-----3-------3---------3-----0--|------------------------------------|
G |---------------------------0--------|---2--------------------------------|
D |-------------------0----------------|---0-------2-------0----------------|
A |-----------2------------------------|---------------------------3--------|
E |---3--------------------------------|------------------------------------|

53    |   .   |   .   |   .   |   .        |   .   |   .   |   .   |   .
E |---------------------------0--------|---3-----2-5-----3-2-----5-3-----0--|
B |-------------------0-----3-------3--|---1--------------------------------|
G |---0-----2-0-----2---------0--------|---------------------------0--------|
D |-------------------0----------------|-------------------2----------------|
A |-----------2------------------------|-----------3------------------------|
E |---3--------------------------------|------------------------------------|

55    |   .   |   .   |   .   |   .        |   .   |   .   |   .   |   .
E |-----------6-------------6-5-----0--|---3--------------------------------|
B |---3-----3-------3------------------|---0--------------------------------|
G |-------------------6-------5--------|---0--------------------------------|
D |---------------------------0--------|-----------0------------------------|
A |---2--------------------------------|------------------------------------|
E |-----------0------------------------|-------------------3----------------| 

57    |   .   |   .   |   .   |   .        |   .   |   .   |   .   |   .
E |-----------7-----5-5-------3--------|---3-------2-----0-0----------------|
B |---0-------8---------------0--------|-----------3---------------3--------|
G |-----------0-----------0------------|-------0-------------------1--------|
D |-------0----------------------------|-----------------------2------------|
A |-------------------2----------------|---3--------------------------------|
E |---3--------------------------------|-------------------0----------------|

59    |   .   |   .   |   .   |   .        |   .   |   .   |   .   |   .
E |---------------0--------------------|------------------------------------|
B |---3-------1-------3-------1--------|---0--------------------------------|
G |-----------2------------------------|-------2---0---------------0---2----|
D |-------0-------0---4-------2---4----|-----------0------------------------|
A |---0---------------5----------------|-------------------2----------------|
E |------------------------------------|---3--------------------------------|

61    |   .   |   .   |   .   |   .        |   .   |   .   |   .   |   .
E |-----------7-----5-5-------3--------|---3-------2---0---0----------------|
B |---0-------8---------------0--------|-----------3---------------3--------|
G |-----------0-----------0------------|-------0-------------------1--------|
D |-------0----------------------------|-----------------------2------------|
A |-------------------2----------------|---3--------------------------------|
E |---3--------------------------------|-------------------0----------------|

64    |   .   |   .   |   .   |   .        |   .   |   .   |   .   |   .
E |---------------0--------------------|-------------------3---------------||
B |---3---1---3-------0-------0---1----|---0-------3-------0---------------||
G |-----------0-----------2------------|---0-------------------------------||
D |-----------2-------4----------------|-----------4-----------------------||
A |---0---------------5----------------|-----------5-----------------------||
E |------------------------------------|-------------------3---------------||
                                                                          Fine
Добавлено: 26.04.2012
Другие материалы по этой песне:
  • Аккорды и текст

Страница создана 26.04.2012
http://primanota.ru/antonin-dvorak/op-101-humoresque-no-7-chords.htm
Привет, Гость.
Предлагаем пройти революционный курс по гитаре.
Подарок от PrimaNota.Ru, забирай!