PrimaNota.ru - самый крупный в мире бесплатный архив песенных текстов, аккордов, табулатур и нот


Дворжак Антонин - Op 95 - Symphony No 9 In Em B 178 - Ii Largo Excerpt - таба, видео

Регистрация Запомнить меня
Войти через:  Facebook Google Twitter Vk Yandex Mail.ru

Дворжак Антонин - Op 95 - Symphony No 9 In Em B 178 - Ii Largo Excerpt - таба, видео

Печатать
Просмотров: 263
Dvorak - New World Symphony - II. Largo (exerpt)

Tabbed by ichigik (February 2008)

"="triplet  ipi,pip  picking down, not alternate

|-3-2-0-0---3-2-0-|-----|-------0---0--------|----------0---||
|-----------------|-----|-3-0-3---1---3-1-3--|-0--3-0-3-0===||
|-4=======2=======|--*--|-------4=-----------|-4========0===||
|-2=======--------|-----|-4=======--------4=-|-5========2===||
|---------3=======|-----|-2=======0=======5=-|--------------||
|-----------------|-----|--------------------|--------------||

|-3-2-0-0---3-2-0--|-0-3-7-7-7---|---5----0--0--0--0-|
|------------------|-0==========-|-5---8-10-13-12-10-|
|-4=======5=======-|-0==========-|-0---0--0--0--0--0-|
|-2=======7=======-|-2=======0==-|-------------------|
|------------------|-------------|-3-----------------|
|------------------|-------------|-----8--8--8--8--8-|

                               =tremolo  
|-<12>----------0----0--------|-0=======2===3===|-7===5=======8===|
|-<12>--------0--------0------|-0=======5===0===|-8===6======10===|
|-<12>------0-----------0-----|-0=======5===----|-5===5=======----|
|---------2--------------2----|-----------------|-------5-7-------|
|-<7>---2---------<7>-----2---|-----2---0-3-2---|-0-3-8-----8-7-6-|
|-----0---------------------0-|-0-3---0-------0-|-----------------|

                                                            2nd time
|--8===7===7=5===3=|-3===2===5===353=2=|-3=0=============-| -3===========0=2=|
|-10===8===8=7===5=|-5===5===5===4===4=|-5=0=============-| -0===========0=4=|
|--5===4===--4===5=|-5===2===5===4===4=|-4=0=============-| -4===========----|
|------5-----------|-------------------|------------------| ---2-0-----------|
|--7-8---4-6---7-3-|-0-2-3-0---0-2---2-|-----2-7-5-3-2----| -------3-2-0-----|
|------------7-----|---------2---------|-0-3-----------3--| -0-----------3-2-|

|-3=======5===7===|10====12=10==10-7=====3==|-5=====7=8===3===|
|-5=======7===8===|10====10=10==-8-8=====3==|-6=====6=8===5===|
|-----------------|11====--------7-7=====---|-5=====7=9===4===|
|-------2-----5---|-0-7---0----------0------|-3-----0---0-2---|
|---2-----3-7---7-|-----9-------10----------|---3-0-----------|
|-0---3-----------|--------------------7-3--|---------8-----3-|

|-3=======5===353=0=|-0==============-||
|-5=======5===4===0=|-0==============-||
|-5=======5===4===2=|-0==============-||
|-------------------|---2-0-----------||
|-0-2-3-0---0-2---2-|-------3-2-0-----||
|---------2---------|-0-----------3-2-||

|-0-----0-2-3-5---3---2------|---------|-7-------0-------8-------7-------|
|-8-7-5-5----------------5---|---------|-----0-3-----0-----5-------------|
|-----------------2------2---|---*-----|-7---------0---0-5---7-5-7-------|
|---------------2---2--2---2-|---------|---0-4-0-----------------0-0-4-0-|
|-------------3-------3------|---------|-----------------0---------------|
|-0--------------------------|---------|-7-------0-----------------------|

|----5-2-3---0---5---3---2-----|-0-----3-5-7-8-------------------|
|-0----3-0-3-----0-------0-----|-8-7-5-5----------8--------------|
|-0------------0---0---0---0---|----------------------11----9----|
|-0----------------------------|---------------8-10-8----8-10-8--|
|------------------------------|------------10--------10---------|
|-3----------0-------0---------|-0-----------8-------------------|

|-7-------------8-------------------|-10p8-----------------8---5-----------|
|-8-7---8-10-12------8--------------|-10------8----6-----------6---8---6---|
|-----9-9----------------10----9----|-----------11-----5-----5---5---5---5-|
|-----------------8-10-8----8-10-8--|------10---10---7---7-7-------7-------|
|--------------10--------10---------|--8-----------8-----------------------|
|-0-------------8-------------------|--------------------------------------|

|-13--12-11-10-9-8-7-6-|-8-7-5-----0-------|
|--0-------------------|-0-----8-7---4/10--|
|------------------0---|-------------------|
|----------------------|-------------------|
|----------------------|-------------------|
|--------------------7-|-7-----------------|

|-3-2---1-------0-0-------------|--------------||
|-4---1---3---2---1-4-1-----0---|----0-1-0-----||
|-5---2---3-2-3---2-----0-----3-|--------------||
|-------------5---4-----2-4-----|----------4-5-||
|-------------------------6-----|-2------------||
|-------------------------------|--------------||

|-3-2-0-0----3-2-0-|-----|-3-2-0-0-----|
|-0----------------|-----|-0-----0-----|
|-0--------3-------|--*--|-0-----1-----|
|-2--------2-------|-----|-2-----2-----|
|-2--------3-------|-----|-2-----2-----|
|-0--------3-------|-----|-0-----0-----|

mute
|-4-5-7-4-------4-5-4-------4-5-4-7--5-4---4---|
|---------7-5-7-------7-5-7--------------7---5-|
|----------------------------------------------|
|----------------------------------------------|
|----------------------------------------------|
|----------------------------------------------|

|-------<12>-----------<12>----5<17>-<12>---------<12>---|
|<12>------------4<16>----------------------4<16>--------|
|--1-2-4--1--------------1---------1-2-1-4--2---1---1----|
|-----------4-2--4---6-7---4-2--4-----------------4---2--|
|--------------------------------------------------------|
|--------------------------------------------------------|

|-16-17-19-16-14-12-14-16-17-16-14-12--|-14-16-17-16-19--17-16-14-16-12-----||
|--0--------0--------0--------0--------|--0--------0------0--------0--------||
|--------------------------------------|------------------------------------||
|--------------------------------------|------------------------------------||
|--------------------------------------|------------------------------------||
|--------------------------------------|------------------------------------||

|--------<24>------------<24>-----|-5<29>-2<26>-<24>---------<24>------|
|-<24>-----------<27>-------------|-------------------<27>-------------|
|---------------------------------|------------------------------------|
|---------------------------------|------------------------------------|
|---------------------------------|------------------------------------|
|---4-5-7--4-2-0---2-4-5---4-2-0--|-2---4-5------4-7----5-4-2-4-0------|

                                        =alternate picking by index finger nail
|---7-7-7-7-7-7-7-7-7-7-7-|-7-7-7---------------|-0========|-0===3====0=======|
|-0-----0-----5-----0-----|-0-------------------|-1========|-1===1====1===3=1=|
|-6---8-------6---8-------|-6---8--*----*----*--|-0========|-0===0====0===0=0=|
|-7-----6-----------6-----|-7-------------------|-2======2-|-2===2====2===2=2=|
|-------------------------|---------------------|------3---|-3-----3--3-------|
|-------------------------|---------------------|-0--3-----|------------------|

|-0========---|-0==3=3==0=======|0======0==------|-0=====0===------||
|-1========---|-1=======1===3=1=|1====3=1==------|-1=====3===------||
|-0========---|-0=======2=0===0=|0======0==---*--|-0=====0===---*--||
|-2======2----|-2=======0=====2=|2======2==------|-2=====2===------||
|------3------|-3=======3=======|0======3==------|-0=====3===------||
|-0--3--------|-0=======0=======|0==3===0==------|-0==3==0===------||
 
Добавлено: 02.04.2012
Вам также может быть интересно:
Другие материалы по этой песне:
  • Аккорды и текст

Страница создана 02.04.2012
http://primanota.ru/antonin-dvorak/op-95-symphony-no-9-in-em-b-178-ii-largo-excerpt-chords.htm
Привет, Гость.
Предлагаем пройти революционный курс по гитаре.
Подарок от PrimaNota.Ru, забирай!