PrimaNota.ru - самый крупный в мире бесплатный архив песенных текстов, аккордов, табулатур и нот


Anthrax - Sects - аккорды и текст, таба, бас-таба, видео

Регистрация Запомнить меня
Войти через:  Facebook Google Twitter Vk Yandex Mail.ru

Anthrax - Sects - аккорды и текст, таба, бас-таба, видео

Печатать
Просмотров: 251
Авторы музыки: Bernard Bonvoisin, Jimmy Pursey, Norbert Krief

Sects
Anthrax
		   Anthrax: soldiers of Metal


                  Rhy. 1
|---------------||-----------------------|-------------------|
|---------------||-----------------------|-------------------|
|--10--9--5---2-||o--7---------7---------|-7---------5-------|
|--10--9--5---2-||o--7---------7---------|-7---------5-------|
|--8---7--3---0-||---5-5-5-5-5-5-5-5-5-5-|-5-5-5-5-5-3-3-3-3-|
|---------------||-----------------------|-------------------|

                                  end 1 4x    Rhy. 2
|----------------------|-----------------||-----------------------|
|----------------------|-----------------||-----------------------|
|-7---------7----------|--------2---5--o-||-o-9---------9---------|
|-7---------7----------|-3---5--2---5--o-||-o-9---------9---------|
|-5-5-5-5-5-5--5-5-5-5-|-3---5--0---3----||---7-7-7-7-7-7-7-7-7-7-|
|----------------------|-1---3-----------||-----------------------|

                                                       end 2  4x
|---------------------|---------------------|-----------------||
|---------------------|---------------------|-----------------||
|-9---------7---------|-9---------9---------|-----2---4---7-o-||
|-9---------7---------|-9---------9---------|-5---2---4---7-o-||
|-7-7-7-7-7-5-5-5-5-5-|-7-7-7-7-7-7-7-7-7-7-|-5---0---2---5---||
|---------------------|---------------------|-3---------------||


  Rhy 3
||-------------------------|------------------------|
||-o-4-----------4---------|-4----------------------|
||-o-4-----------4---------|-4----------------------|
||---2--2-2-2-2--2-2-2-2-2-|-2--2-2-2-2-2-2-3-3-3-2-|

   We---------------------------            are
   For                      Your



                                 end 3     2x
|-------------------------|------------5----||
|-4------------4----------|-4----------5--o-||
|-4------------4----------|-4----------3--o-||
|-2--2-2-2-2-2-2--2-2-2-2-|-2--2-2-2-2------||

  fighting---------------
 Lives------------


  Rhy 4
||---2----------2----------|-2-------------|
||-o-2----------2----------|-2---------5-5-|
||-o-0--0-0-0-0-0--0-0-0-0-|-0-0-0-0-0-5-5-|
||-------------------------|-----------3-3-|

  Oo------------------------     we are the

 In------ the--    line----            of




                                    End 4  2x
|-2---------2----------|-2-----------5-5----||
|-2---------2----------|-2-----------5-5--o-||
|-0-0-0-0-0-0--0-0-0-0-|-0--0-0-0-0--3-3--o-||
|----------------------|--------------------||
 Soldiers

Fire-------



   Rhy. 5
||---7---------7---------|-7----------5----------|
||-o-7---------7---------|-7----------5----------|
||-o-5-5-5-5-5-5-5-5-5-5-|-5--5-5-5-5-3--3-3-3-3-|
||-----------------------|-----------------------|

              Down in - the trenches
            The time is approaching


                                 end  5  2x
|-7----------7----------|-7-------10--10---||
|-7----------7----------|-7-------10--10-o-||
|-5--5-5-5-5-5--5-5-5-5-|-5-5-5-5-8---8--o-||
|-----------------------|------------------||

     we wait for the     night
     we're ready   to    strike------

|-2----------2----------|-2----------------|
|-2----------2----------|-2----------5--5--|
|-0--0-0-0-0-0--0-0-0-0-|-0-0-0-0-0--5--5--|
|-----------------------|------------3--3--|

(------------------------------------------)

|-2---------2----------|-2-----------5--7--|
|-2---------2----------|-2-----------5--7--|
|-0-0-0-0-0-0--0-0-0-0-|-0--0-0-0-0--3--5--|
|----------------------|-------------------|

w/Rhy 3 (4x)

We'll stop at nothing
There's no holding back
Born to raise hell
We will attack---------------

(if you haven't guest it Neil Turbin Likes to scream)



        Rhy 6  w/solo
|------|---4----------4----------|-4----------5---5-|
|-4----|---4----------4----------|-4----------5---5-|
|-4----|---2--2-2-2-2-2--2-2-2-2-|-2--2-2-2-2-3---3-|
|-2----|-------------------------|------------------|

                               End 6
|-4----------4---------|-4----------7---7--|
|-4----------4---------|-4----------7---7--|
|-2--2-2-2-2-2-2-2-2-2-|-2--2-2-2-2-5---5--|
|----------------------|-------------------|



|--4----------4----------|-4----------5---5-|
|--4----------4----------|-4----------5---5-|
|--2--2-2-2-2-2--2-2-2-2-|-2--2-2-2-2-3---3-|
|------------------------|------------------|

|-4----------4---------|-4----------10---10--|
|-4----------4---------|-4----------10---10--|
|-2--2-2-2-2-2-2-2-2-2-|-2--2-2-2-2-8----8---|
|----------------------|---------------------|



||---7----|-----10-10-|-7----|----12--12---||-7------|
||-o-7----|-----10-10-|-7----|----12--12-o-||-7------|
||-o-5----|-----8--8--|-5----|----10--10-o-||-5------|
||--------|-----------|------|-------------||--------|


Rhy 7
||----2----------2----------|-2----------8--7-|
||-o--2----------2----------|-2----------8--7-|
||-o--0--0-0-0-0-0--0-0-0-0-|-0--0-0-0-0-6--5-|
||--------------------------|-----------------|
3rd time

 Pounding away               tearing through
 Soldiers of Metal          Fighting to
                                          End 7 4x
|-2----------------------|-2-----------12---14----||
|-2----------------------|-2-----------12---14--o-||
|-0--0-0-0-0-0-0-0-0-0-0-|-0-0-0-0-0-0-10---12--o-||
|------------------------|------------------------||


Flesh
Death


W/Rhy 3 2x

Blasting the cannons, shacking the ground
Hacking and killing, we're not fooling around

W/Rhy 1 2X

Warroirs in Battle, all dressed in black
A slash and a thrust, a stab in the back


W/Rhy 2 2x

The rage of fury, the cause of the fight
We're soldiers of Metal, and we rule






|--9---5----7---4---5---2--|--9----|--9\---|
|--9---5----7---4---5---2--|--9----|--9\---|
|--7---3----5---2---3---0--|--7----|--7\---|
|--------------------------|-------|-------|
                              *trm pick that baby until you feel like stopping
                                  then slide out..
the Night(------------------)
            (scream it until you cry)



Any question email me at lush0001@hotmail.com
Or ask for a requested tab. I have most of the old tabs a few new.     
Добавлено: 19.12.2013
Другие материалы по этой песне:

Страница создана 26.02.2012
http://primanota.ru/anthrax/sects-chords.htm
Привет, Гость.
Предлагаем пройти революционный курс по гитаре.
Подарок от PrimaNota.Ru, забирай!