PrimaNota.ru - самый крупный в мире бесплатный архив песенных текстов, аккордов, табулатур и нот


Anthrax - Friggin In The Riggin - текст песни, таба, видео

Регистрация Запомнить меня
Войти через:  Facebook Google Twitter Vk Yandex Mail.ru

Anthrax - Friggin In The Riggin - текст песни, таба, видео

Печатать
Просмотров: 231
Авторы музыки: [unknown]

-------------------------------------------------------------------------------
                            Friggin' in the Riggin' - Anthrax
-------------------------------------------------------------------------------
Tabbed by:Gingernutsjonny

Tuning: Standard E (EADGBE)

e|---------------------|   |
B|-7-6-7-6-5-6-5-4-5/1-| X2|
G|-7-6-7-6-5-6-5-4-5/1-|   |
D|-------------------------|
A|-------------------------|
E|-------------------------|


e|----------------------|   |------------------------------------------|
B|----------------------| X2|------------------------------------------| X2
G|----------------------|   |------------------------------------------|
D|-3--3--4--3--2--1--(1)------3--3--4--3--2--1--2--3--2--3--2--3--2--1r|
A|---------------------------------------------------------------------|
E|---------------------------------------------------------------------|


e|------------|   |--------------|
B|------------| X3|--------------|
G|-5--5-------|   |-4--4---------|
D|-5--5--5--5-------4--4--4--4---|
A|-3--3--5--5-------2--2--4--4---|
E|-------3--3-------------2--2---|

e|--7-p6-h7-p6-p5-p4-5/7-p6-h7-p6-p5-p4-h5-p4-h5|
B|----------------------------------------------|
G|----------------------------------------------|
D|----------------------------------------------|
A|----------------------------------------------|
E|----------------------------------------------|



e|----------------------|   |------------------------------------------|
B|----------------------| X2|------------------------------------------| X2
G|----------------------|   |------------------------------------------|
D|-3--3--4--3--2--1--(1)------3--3--4--3--2--1--2--3--2--3--2--3--2--1r|
A|---------------------------------------------------------------------|
E|---------------------------------------------------------------------|


e|------------|   |--------------|
B|------------| X3|--------------|
G|-5--5-------|   |-4--4---------|
D|-5--5--5--5-------4--4--4--4---|
A|-3--3--5--5-------2--2--4--4---|
E|-------3--3-------------2--2---|

GIVE IT SOME BOLLOCKS!

e|-----|-----------------------------------------------------|
B|-----|-----------------------------------------------------|
G|-4---|-----------------------------------------------------|
D|-4---|-----------------------------------------------------|
A|-2---|-----------------------------------------------------|
E|-----|-0-0-0-0-0-0-0-0-0-0-0-0-0-0-0-0-0-0-0-0-0-0-0-0-0-0-|
         * * * * * * * * * * * * * * * * * * * * * * * * * *

e|---------|   |-----------------------|
B|---------| X4|-----------------------|X2
G|-5--5----|   |-5--5--7--7--5--5------|
D|-5--5----------5--5--7--7--5--5--5--5|
A|-3--3----------3--3--5--5--3--3--5--5|
E|---------------------------------3--3|


e|------------|   |----------------7-p6-h7-p6-p5|
B|------------| X3|-----------------------------|
G|-5--5-------|   |-4--4------------------------|
D|-5--5--5--5-------4--4--4--4------------------|
A|-3--3--5--5-------2--2--4--4------------------|
E|-------3--3-------------2--2------------------|

e|-----------------|   |-----------------------|
B|-----------------| X2|-----------------------|X2
G|-----------------|   |-5--5--7--7--5--5------|
D|-------------5---------5--5--7--7--5--5--5--5|
A|-------------5---------3--3--5--5--3--3--5--5|
E|-0-0-0-0-0-0-3---------------------------3--3|


e|------------|   |--------------|
B|------------| X3|--------------|
G|-5--5-------|   |-4--4---------|
D|-5--5--5--5-------4--4--4--4---|
A|-3--3--5--5-------2--2--4--4---|
E|-------3--3-------------2--2---|


e|------------|   |--------------|   |
B|------------| X2|-4/5-5--4/5-5-| X2| X2
G|-4/5-5--4/5--5----4/5-5--4/5-5-----|
D|-4/5-5--4/5--5----2/3-3--2/3-3-----|
A|-2/3-3--2/3--3---------------------|
E|-----------------------------------|

e|------------|   |----------------7-p6-h7-p6-p5|
B|------------| X3|-----------------------------|
G|-5--5-------|   |-4--4------------------------|
D|-5--5--5--5-------4--4--4--4------------------|
A|-3--3--5--5-------2--2--4--4------------------|
E|-------3--3-------------2--2------------------|

e|-----------------|   |-----------------------|
B|-----------------| X2|-----------------------|X2
G|-----------------|   |-5--5--7--7--5--5------|
D|-------------5---------5--5--7--7--5--5--5--5|
A|-------------5---------3--3--5--5--3--3--5--5|
E|-0-0-0-0-0-0-3---------------------------3--3|

e|------------|   |----------------7-p6-h7-p6-p5|
B|------------| X3|-----------------------------|
G|-5--5-------|   |-4--4------------------------|
D|-5--5--5--5-------4--4--4--4------------------|
A|-3--3--5--5-------2--2--4--4------------------|
E|-------3--3-------------2--2------------------|

e|-----------------|   |-----------------------|
B|-----------------| X2|-----------------------|X2
G|-----------------|   |-5--5--7--7--5--5------|
D|-------------5---------5--5--7--7--5--5--5--5|
A|-------------5---------3--3--5--5--3--3--5--5|
E|-0-0-0-0-0-0-3---------------------------3--3|



e|------------|   |--------------|
B|------------| X3|--------------|
G|-5--5-------|   |-4--4---------|
D|-5--5--5--5-------4--4--4--4---|
A|-3--3--5--5-------2--2--4--4---|
E|-------3--3-------------2--2---|


e|-----------------|   |-----------------------|
B|-----------------| X2|-----------------------|X2
G|-----------------|   |-5--5--7--7--5--5------|
D|-------------5---------5--5--7--7--5--5--5--5|
A|-------------5---------3--3--5--5--3--3--5--5|
E|-0-0-0-0-0-0-3---------------------------3--3|



e|------------|   |--------------|
B|------------| X3|--------------|X13
G|-5--5-------|   |-4--4---------| Several tempo changes
D|-5--5--5--5-------4--4--4--4---| and develops into a mess.
A|-3--3--5--5-------2--2--4--4---| 
E|-------3--3-------------2--2---|

e|--------|
B|--------|
G|--------|
D|-4------|
A|-4------|
E|-2------|


| /  slide up
| \  slide down
| h  hammer-on
| p  pull-off
| ~  vibrato
| +  harmonic
| *  Mute note
===============================================================================
Добавлено: 01.06.2012
Другие материалы по этой песне:
  • Аккорды и текст

Страница создана 01.06.2012
http://primanota.ru/anthrax/friggin-in-the-riggin-chords.htm
Привет, Гость.
Предлагаем пройти революционный курс по гитаре.
Подарок от PrimaNota.Ru, забирай!