PrimaNota.ru - самый крупный в мире бесплатный архив песенных текстов, аккордов, табулатур и нот


Angels & Airwaves - Paralyzed - таба, бас-таба, видео

Регистрация Запомнить меня
Войти через:  Facebook Google Twitter Vk Yandex Mail.ru

Angels & Airwaves - Paralyzed - таба, бас-таба, видео

Печатать
Просмотров: 218
-------------------------------------------------------------------------------
                             Angels And Airwaves - Paralyzed
-------------------------------------------------------------------------------
Tabbed by:
E-mail: alexxvedom@gmail.com 

Tuning: standard

I know eventually there are going to be better tabs for this song but for now I just want to share
what I came up to so far.

guitar starts playing at 0:23

Intro:
e|-5-5-5-5-5--5-5-5-5--5-5-5-5-|
B|-5-5-5-5-5--5-5-5-5--5-5-5-5-|
G|-2-2-2-2-2--2-2-2-2--2-2-2-2-|
D|-----------------------------| (x4)
A|-----------------------------|
E|-----------------------------|

Main riff:
e|-------------------------------------|
B|-------------------------------------|
G|---------------8/9-------------------|
D|-7-7-7-7-7-7-7-x/x-7-7-7-7-7-7-7/6\7-| (x4)
A|-x-x-x-x-x-x-x-6/7-x-x-x-x-x-x-x/x\x-|
E|-5-5-5-5-5-5-5-----5-5-5-5-5-5-5/4\5-|

Verse:
e|-(0)----1--0----1--0----------|
B|------------------------------|
G|--------------------4--2------|
D|------------------------------| (x2)
A|--------------------------0---|
E|------------------------------|

Chorus:
e|-------------------------------------------12-12-10-10-10-10-10-10-10-10-9-9-9-9-9-9-9-9-|
B|-10-10-10-10-10-10-10-10-10-10-10-10-10-10-----------------------------------------------|
G|-----------------------------------------------------------------------------------------|
D|-----------------------------------------------------------------------------------------| (x2)
A|-----------------------------------------------------------------------------------------|
E|-----------------------------------------------------------------------------------------|

Main riff
Verse
Chorus

Bridge:
Guitar 1

e|-12-12-12-12-12-12-12-12-9-9-9-9-9-9-9-9-10-10-10-10-10-10-10-10-------------------------|
B|-----------------------------------------------------------------10-10-10-10-10-10-10-10-|
G|-----------------------------------------------------------------------------------------|
D|-----------------------------------------------------------------------------------------| (x3)
A|-----------------------------------------------------------------------------------------|
E|-----------------------------------------------------------------------------------------|

Guitar 2 starts playing this after guitar 1 plays one cycle above.
e|-------------------------------------------|
B|-------------------------------------------|
G|-9-9-------6------6-6-7-7-7----6-6-4-4-4-2-|
D|-x-x-7-7-7-x-(x6)-x-x-x-x-x-7--x-x-x-x-x-x-|
A|-7-7-x-x-x-4------4-4-5-5-5-x--4-4-2-2-2-0-|
E|-----5-5-5------------------5--------------|

Chorus
Main riff


I love this song! Can't wait for the new album!

And please don't forget to rate if you (dis)liked this!

************************************

| /   slide up
| \   slide down
| h   hammer-on
| p   pull-off
| ~   vibrato
| +   harmonic
| x   Mute note
| b   Bend
| pb  Pre-bend
| br  Bend release
| pbr Pre-bend release
| brb Bend release bend

************************************
Добавлено: 13.11.2014
Другие материалы по этой песне:
  • Аккорды и текст

Страница создана 12.10.2014
http://primanota.ru/angels-and-airwaves/paralyzed-chords.htm
Привет, Гость.
Предлагаем пройти революционный курс по гитаре.
Подарок от PrimaNota.Ru, забирай!