PrimaNota.ru - самый крупный в мире бесплатный архив песенных текстов, аккордов, табулатур и нот


Andy Mckee - She - таба, видео

Регистрация Запомнить меня
Войти через:  Facebook Google Twitter Vk Yandex Mail.ru

Andy Mckee - She - таба, видео

Печатать
Просмотров: 266
Capo at 5th fret

Tuning:BGDGAD

D||----------2-----4-2-0--0--|------------------0--------|
A||----------0---------------|----------0--0h2-----0-----|
G||--------------------------|------------------------0--|
D||-------0------------------|-------0-------------------|
G||--0----------0------------|---------------------------|
B||--------------------------|--3------------3-----------|

|-------------0-----------|--------------------------|----------2-----4-2-0--0--|
|----------------0-----0--|--------------------------|----------0---------------|
|----------0--------------|-------0---------------0--|--------------------------|
|-------4-----------0-----|-------0-------0--0h2-----|-------0------------------|
|-------------------------|--------------------------|--0----------0------------|
|--5----------5-----------|--1---------1-------------|--------------------------|

|--7--------0-------------|-----------0-----2-------|-------------------------|
|--------0----------------|----------------------0--|-------------------------|
|-----0----------------0--|--------0----------------|-------0--------------0--|
|-------------------4-----|-----4-------------------|-------0-------0--0-2----|
|-------------------------|-------------------------|-------------------------|
|--3-----------3----------|--5-----------5----------|--1---------1------------|

|----------2-----4-2-0--0--|----------------0--------|-------------0-----------|
|----------0---------------|----------2--------0-----|----------------0-----0--|
|--------------------------|----------------------0--|----------0--------------|
|-------0------------------|-------0-----------------|-------4-----------0-----|
|--0----------0------------|-------------------------|-------------------------|
|--------------------------|--3----------3-----------|--5----------5-----------|

|------------------------|----------2-----4-2-0--0--|--7--------5-----4----0--|
|------------------------|----------0---------------|-----0-------------------|
|-------0-------------0--|--------------------------|--------0----------------|
|-------0-------0--2-----|-------0------------------|-------------------------|
|------------------------|--0----------0------------|-------------------------|
|--1---------1-----------|--------------------------|--3-----------3----------|

|-----------0-----2-------|-----------------------|-----------0---------------|
|----------------------0--|-----------------------|--0--------------0---------|
|--------0----------------|-------0---------------|-----0---------------------|
|-----4-------------------|-------0---------0-----|--------0-----------0-2-0--|
|-------------------------|-----------------------|---------------------------|
|--5-----------5----------|--1---------1----------|--1-----------1------------|

                                                 T
|--------0--0--0--0--0------|--------4--4--4--4--7p0--|
|--------2--2--2--2--2------|--------0--0--0--0-------|
|--------0--0--0--0--0------|--------0--0--0--0-------|
|--------2--2--2--2--2--7t--|--------4--4--4--4-------|
|--0--0--0--0--0--0--0------|--------0--0--0--0-------|
|--1--1--1--1--1--1--1------|--3--3--3--3--3--3-------|

                                                                               T
|----------------------------|----------0--0--0--0--0--|-----------4--4--4--4--7---|
|----------------------------|----------2--2--2--2--2--|-----------0--0--0--0------|
|----------0--------0--------|----------0--0--0--0--0--|-----------0--0--0--0------|
|------0---------0-----------|--0-------2--2--2--2--2--|--7t-------4--4--4--4------|
|-------------------------0--|----------0--0--0--0--0--|-----------0--0--0--0------|
|--7t--------8t--------0-----|-----1----1--1--1--1--1--|------3----3--3--3--3------|

|--0-------------------------|-------------0--0--0--0--|--0----------4--4--4--0--|
|----------------------------|-------------2--2--2--2--|--2----------0--0--0-----|
|-------------0--------0-----|-------------0--0--0--0--|--0----------0--0--0-----|
|----------0--------0--------|-----0-------2--2--2--2--|--2--7-------4--4--4-----|
|----------------------------|--0----------0--0--0--0--|--0----------0--0--0-----|
|-----7t--------8t--------0--|--------1----1--1--1--1--|--1-----3----3--3--3-----|
 
|--2p0--------------------|----------0-----------|----------------------|
|-------------0-----------|----------0-----------|----------0-----------|
|-------------0-----------|----------------------|----------0-----------|
|----------0--------------|-------0--------------|-------0--------------|
|----------------------x--|-------------------x--|-------------------x--|
|-------5--------------x--|--0h1--------------x--|--0h5--------------x--|

|------------------------|----------2-----4-2-0--0--|----------------0--------|
|------------------------|----------0---------------|----------0--2-----0-----|
|----------0--------L----|--------------------------|----------------------0--|
|----------0--------L----|-------0------------------|-------0-----------------|
|-------0-----------x----|--0----------0------------|-------------------------|
|--0h1--------------x----|--------------------------|--3----------3-----------|

|----------0--------------|-------------------------|----------2-----4-2-0--0--|
|----------------0-----0--|-------------------------|----------0---------------|
|-------------------------|-------0--------------0--|--------------------------|
|-------4-----------0-----|-------0-------0--0-2----|-------0------------------|
|-------------------------|-------------------------|--0----------0------------|
|--5----------5-----------|--1---------1------------|--------------------------|

|--7--------0-------------|-----------0-------------|-----------------------|
|--------0----------------|-----------------0-------|-----------------------|
|-----0----------------0--|--------0-------------0--|-------0------------0--|
|-------------------4-----|-----4-------------------|-------0---------0-----|
|-------------------------|-------------------------|-----------------------|
|--3-----------3----------|--5-----------5----------|--1---------1----------|

|-----------0---------------|----------------------|----------------------|
|--0--------------0---------|----------0-----------|----------------------|
|-----0---------------------|----------0-----------|----------0-----------|
|--------0-----------0-2-0--|-------0--------------|----------0-----------|
|---------------------------|-------------------x--|-------0-----------x--|
|--1-----------1------------|--0h5--------------x--|--0h1--------------x--|

|----------------------|----------0-----------|------------------------|
|----------0-----------|----------0-----------|----------0-------------|
|----------0-----------|----------------------|----------0-------------|
|-------0--------------|-------0--------------|-------0-----------5----|
|-------------------x--|-------------------x--|------------------------|
|--0h5--------------x--|--0h1--------------x--|--0h5-------------------|

|----------0-------------|-----0-----------0-------|----------------0-------|
|--3---------------3-----|--------3-------------2--|-------2-------------1--|
|-------0-------------0--|-----------0-------------|----------0-------------|
|------------------------|-------------------------|------------------------|
|------------------------|-------------------------|------------------------|
|--3----------3----------|--3-----------3----------|--1----------1----------|
 
|----------------0-------|--------0---------------|-------------------------|
|-------1-------------0--|-----------0------------|-------------------------|
|----------0-------------|-----0-----------0------|--------0-------------0--|
|------------------------|------------------------|-------------------0-----|
|------------------------|------------------------|-------------------------|
|--1----------1----------|--0-----------0---------|--5-----------5----------|

|----------0---------------|------------------------|----------2-----4-2-0--0--|
|--------------------------|----------------0-------|----------0---------------|
|----------------0------0--|----------0----------0--|--------------------------|
|-------0-----------0-2----|-------0----------------|-------0------------------|
|--------------------------|------------------------|--0----------0------------|
|--1----------1------------|--3----------3----------|--------------------------|

|----------------0--------|-------------0-----------|------------------------|
|----------2--------0-----|----------------0-----0--|------------------------|
|----------------------0--|----------0--------------|-------0-------------0--|
|-------0-----------------|-------4-----------0-----|-------0-------0--2-----|
|-------------------------|-------------------------|------------------------|
|--3----------3-----------|--5----------5-----------|--1---------1-----------|

|----------2-----4-2-0--0--|--7--------5-----4----0--|-----------0-----2-------|
|----------0---------------|-----0-------------------|----------------------0--|
|--------------------------|--------0----------------|--------0----------------|
|-------0------------------|-------------------------|-----4-------------------|
|--0----------0------------|-------------------------|-------------------------|
|--------------------------|--3-----------3----------|--5-----------5----------|

|-----------------------|-----------0---------------|----------------------|
|-----------------------|--0--------------0---------|----------------------|
|-------0---------------|-----0---------------------|----------0-----------|
|-------0---------0-----|--------0-----------0-2-0--|----------0-----------|
|-----------------------|---------------------------|-------0-----------x--|
|--1---------1----------|--1-----------1------------|--0h1--------------x--|

|----------------------|----------0-----------|------------------------|
|----------0-----------|----------0-----------|----------0-------------|
|----------0-----------|----------------------|----------0-------------|
|-------0--------------|-------0--------------|-------0-----------5----|
|-------------------x--|-------------------x--|------------------------|
|--0h5--------------x--|--0h1--------------x--|--0h5-------------------|

|----------0-------------|--------------------|--------------------|
|--3---------------0--3--|--------------------|--------------------|
|-------0----------------|--------------------|--------------------|
|------------------------|--------------------|--------------------|
|------------------------|--------------------|--------------------|
|--3----------3----------|--3--------3--------|--1--------1--------|

|--------------------|--------------------|--------------------|
|--------------------|--------------------|--------------------|
|--------------------|--------------------|--------------------|
|--------------------|--------------------|--------------------|
|--------------------|--------------------|--------------------|
|--1--------1--------|--1--------1--------|--1--------1--------|

|--------------------|--------------------|-------------------|
|--------------------|--------------------|-------------------|
|--------------------|--------------------|-------------------|
|--------------------|--------------------|-------------------|
|--------------------|--------------------|-------------------|
|--0--------0--------|--0--------0--------|--5----------------|
 
|-------------------|--------------------|--------------------|
|-------------------|--------------------|--------------------|
|-------------------|--------------------|--------------------|
|-------------------|--------------------|--------------------|
|-------------------|--------------------|--------------------|
|--3----------------|--1--------1--------|--1--------1--------|

|--------------------|--------------------|--------------------|
|--------------------|--------------------|--------------------|
|--------------------|--------------------|--------------------|
|--------------------|--------------------|--------------------|
|--------------------|--------------------|--------------------|
|--1--------1--------|--1--------1--------|--0--------0--------|

|--------------------|-------------------|-------------------|
|--------------------|-------------------|-------------------|
|--------------------|-------------------|-------------------|
|--------------------|-------------------|-------------------|
|--------------------|-------------------|-------------------|
|--0--------0--------|--5----------------|--3----------------|

|----------------------|----------0-----------|----------------------|
|----------0-----------|----------0-----------|----------0-----------|
|----------0-----------|----------------------|----------0-----------|
|-------0--------------|-------0--------------|-------0--------------|
|-------------------x--|-------------------x--|-------------------x--|
|--0h5--------------x--|--0h1--------------x--|--0h5--------------x--|

|------------------------|--------------NH--------|
|------------------------|----------0----7----NH--|
|------------0-----------|----------0----------7--|
|------------0-----------|-------0----------------|
|--------0------------x--|------------------------|
|--0h1----------------x--|--0h5-------------------|

               NH
|----------0----7-----NH--|----------------NH-------|
|----------0-----------7--|----------0------7---NH--|
|-------------------------|----------0-----------7--|
|-------0-----------------|-------0-----------------|
|-------------------------|-------------------------|
|--0h1--------------------|--0h5--------------------|

|-------------------------|--------------NH---------|
|--------------NH---------|----------0----7-----NH--|
|----------0----7-----NH--|----------0-----------7--|
|----------0-----------7--|-------0-----------------|
|-------0-----------------|-------------------------|
|--0h1--------------------|--0h5--------------------|

|----------0----7---------|-------------------------|
|----------0-----------7--|----------0----7---------|
|-------------------------|----------0-----------7--|
|-------0-----------------|-------0-----------------|
|-------------------------|-------------------------|
|--0h1--------------------|--0h5--------------------|

                         |NH------------------------|
|------------------------|-------------------7------|
|------------------------|------------7-------------|
|----------0---------NH--|-----7--------------------|
|----------0---NH-----7--|--------------------------|
|-------0-------7--------|--------------------------|
|--0h1-------------------|--------------------------|
 
 
 
Добавлено: 28.03.2012
Другие материалы по этой песне:

Страница создана 28.03.2012
http://primanota.ru/andy-mckee/she-chords.htm
Привет, Гость.
Предлагаем пройти революционный курс по гитаре.
Подарок от PrimaNota.Ru, забирай!